  0
SECTION
  2
HEADER
  9
$ACADVER
  1
AC1014
  9
$ACADMAINTVER
 70
     9
  9
$DWGCODEPAGE
  3
ANSI_932
  9
$INSBASE
 10
0.0
 20
0.0
 30
0.0
  9
$EXTMIN
 10
67.29999999999887
 20
34.30000003178914
 30
0.0
  9
$EXTMAX
 10
770.5152994617397
 20
600.4999999999981
 30
0.0
  9
$LIMMIN
 10
0.0
 20
0.0
  9
$LIMMAX
 10
420.0
 20
297.0
  9
$ORTHOMODE
 70
     0
  9
$REGENMODE
 70
     1
  9
$FILLMODE
 70
     1
  9
$QTEXTMODE
 70
     0
  9
$MIRRTEXT
 70
     1
  9
$DRAGMODE
 70
     2
  9
$LTSCALE
 40
1.0
  9
$OSMODE
 70
    37
  9
$ATTMODE
 70
     1
  9
$TEXTSIZE
 40
2.5
  9
$TRACEWID
 40
1.0
  9
$TEXTSTYLE
  7
STANDARD
  9
$CLAYER
  8
LAY-1
  9
$CELTYPE
  6
BYLAYER
  9
$CECOLOR
 62
   256
  9
$CELTSCALE
 40
1.0
  9
$DELOBJ
 70
     1
  9
$DISPSILH
 70
     0
  9
$DIMSCALE
 40
1.0
  9
$DIMASZ
 40
2.5
  9
$DIMEXO
 40
0.625
  9
$DIMDLI
 40
3.75
  9
$DIMRND
 40
0.0
  9
$DIMDLE
 40
0.0
  9
$DIMEXE
 40
1.25
  9
$DIMTP
 40
0.0
  9
$DIMTM
 40
0.0
  9
$DIMTXT
 40
2.5
  9
$DIMCEN
 40
2.5
  9
$DIMTSZ
 40
0.0
  9
$DIMTOL
 70
     0
  9
$DIMLIM
 70
     0
  9
$DIMTIH
 70
     0
  9
$DIMTOH
 70
     0
  9
$DIMSE1
 70
     0
  9
$DIMSE2
 70
     0
  9
$DIMTAD
 70
     1
  9
$DIMZIN
 70
     8
  9
$DIMBLK
  1

  9
$DIMASO
 70
     1
  9
$DIMSHO
 70
     1
  9
$DIMPOST
  1

  9
$DIMAPOST
  1

  9
$DIMALT
 70
     0
  9
$DIMALTD
 70
     3
  9
$DIMALTF
 40
0.03937007874016
  9
$DIMLFAC
 40
1.0
  9
$DIMTOFL
 70
     1
  9
$DIMTVP
 40
0.0
  9
$DIMTIX
 70
     0
  9
$DIMSOXD
 70
     0
  9
$DIMSAH
 70
     0
  9
$DIMBLK1
  1

  9
$DIMBLK2
  1

  9
$DIMSTYLE
  2
ISO-25
  9
$DIMCLRD
 70
     0
  9
$DIMCLRE
 70
     0
  9
$DIMCLRT
 70
     0
  9
$DIMTFAC
 40
1.0
  9
$DIMGAP
 40
0.625
  9
$DIMJUST
 70
     0
  9
$DIMSD1
 70
     0
  9
$DIMSD2
 70
     0
  9
$DIMTOLJ
 70
     0
  9
$DIMTZIN
 70
     8
  9
$DIMALTZ
 70
     0
  9
$DIMALTTZ
 70
     0
  9
$DIMFIT
 70
     3
  9
$DIMUPT
 70
     0
  9
$DIMUNIT
 70
     2
  9
$DIMDEC
 70
     2
  9
$DIMTDEC
 70
     2
  9
$DIMALTU
 70
     2
  9
$DIMALTTD
 70
     3
  9
$DIMTXSTY
  7
STANDARD
  9
$DIMAUNIT
 70
     0
  9
$LUNITS
 70
     2
  9
$LUPREC
 70
     4
  9
$SKETCHINC
 40
1.0
  9
$FILLETRAD
 40
10.0
  9
$AUNITS
 70
     0
  9
$AUPREC
 70
     0
  9
$MENU
  1
.
  9
$ELEVATION
 40
0.0
  9
$PELEVATION
 40
0.0
  9
$THICKNESS
 40
0.0
  9
$LIMCHECK
 70
     0
  9
$CHAMFERA
 40
0.0
  9
$CHAMFERB
 40
0.0
  9
$CHAMFERC
 40
0.0
  9
$CHAMFERD
 40
0.0
  9
$SKPOLY
 70
     0
  9
$TDCREATE
 40
2460369.603097523
  9
$TDUPDATE
 40
2460369.603097662
  9
$TDINDWG
 40
0.0000000116
  9
$TDUSRTIMER
 40
0.0000000116
  9
$USRTIMER
 70
     1
  9
$ANGBASE
 50
0.0
  9
$ANGDIR
 70
     0
  9
$PDMODE
 70
     0
  9
$PDSIZE
 40
0.0
  9
$PLINEWID
 40
0.0
  9
$COORDS
 70
     1
  9
$SPLFRAME
 70
     0
  9
$SPLINETYPE
 70
     6
  9
$SPLINESEGS
 70
     8
  9
$ATTDIA
 70
     0
  9
$ATTREQ
 70
     1
  9
$HANDLING
 70
     1
  9
$HANDSEED
  5
45F
  9
$SURFTAB1
 70
     6
  9
$SURFTAB2
 70
     6
  9
$SURFTYPE
 70
     6
  9
$SURFU
 70
     6
  9
$SURFV
 70
     6
  9
$UCSNAME
  2

  9
$UCSORG
 10
0.0
 20
0.0
 30
0.0
  9
$UCSXDIR
 10
1.0
 20
0.0
 30
0.0
  9
$UCSYDIR
 10
0.0
 20
1.0
 30
0.0
  9
$PUCSNAME
  2

  9
$PUCSORG
 10
0.0
 20
0.0
 30
0.0
  9
$PUCSXDIR
 10
1.0
 20
0.0
 30
0.0
  9
$PUCSYDIR
 10
0.0
 20
1.0
 30
0.0
  9
$USERI1
 70
     0
  9
$USERI2
 70
     0
  9
$USERI3
 70
     0
  9
$USERI4
 70
     0
  9
$USERI5
 70
     0
  9
$USERR1
 40
0.0
  9
$USERR2
 40
0.0
  9
$USERR3
 40
0.0
  9
$USERR4
 40
0.0
  9
$USERR5
 40
0.0
  9
$WORLDVIEW
 70
     1
  9
$SHADEDGE
 70
     3
  9
$SHADEDIF
 70
    70
  9
$TILEMODE
 70
     1
  9
$MAXACTVP
 70
    64
  9
$PINSBASE
 10
0.0
 20
0.0
 30
0.0
  9
$PLIMCHECK
 70
     0
  9
$PEXTMIN
 10
1.000000000000000E+20
 20
1.000000000000000E+20
 30
1.000000000000000E+20
  9
$PEXTMAX
 10
-1.000000000000000E+20
 20
-1.000000000000000E+20
 30
-1.000000000000000E+20
  9
$PLIMMIN
 10
0.0
 20
0.0
  9
$PLIMMAX
 10
420.0
 20
297.0
  9
$UNITMODE
 70
     0
  9
$VISRETAIN
 70
     1
  9
$PLINEGEN
 70
     0
  9
$PSLTSCALE
 70
     1
  9
$TREEDEPTH
 70
  3020
  9
$PICKSTYLE
 70
     1
  9
$CMLSTYLE
  2
STANDARD
  9
$CMLJUST
 70
     0
  9
$CMLSCALE
 40
20.0
  9
$PROXYGRAPHICS
 70
     1
  9
$MEASUREMENT
 70
     1
  0
ENDSEC
  0
SECTION
  2
CLASSES
  0
CLASS
  1
ACDBDICTIONARYWDFLT
  2
AcDbDictionaryWithDefault
  3
ObjectDBX Classes
 90
        0
280
     0
281
     0
  0
CLASS
  1
VISUALSTYLE
  2
AcDbVisualStyle
  3
ObjectDBX Classes
 90
     4095
280
     0
281
     0
  0
CLASS
  1
MATERIAL
  2
AcDbMaterial
  3
ObjectDBX Classes
 90
     1153
280
     0
281
     0
  0
CLASS
  1
SCALE
  2
AcDbScale
  3
ObjectDBX Classes
 90
     1153
280
     0
281
     0
  0
CLASS
  1
TABLESTYLE
  2
AcDbTableStyle
  3
ObjectDBX Classes
 90
     4095
280
     0
281
     0
  0
CLASS
  1
MLEADERSTYLE
  2
AcDbMLeaderStyle
  3
ACDB_MLEADERSTYLE_CLASS
 90
     4095
280
     0
281
     0
  0
CLASS
  1
SUN
  2
AcDbSun
  3
SCENEOE
 90
     1153
280
     0
281
     0
  0
CLASS
  1
DICTIONARYVAR
  2
AcDbDictionaryVar
  3
ObjectDBX Classes
 90
        0
280
     0
281
     0
  0
CLASS
  1
XRECORD
  2
AcDbXrecord
  3
ObjectDBX Classes
 90
        0
280
     0
281
     0
  0
CLASS
  1
LWPOLYLINE
  2
AcDbPolyline
  3
ObjectDBX Classes
 90
        0
280
     0
281
     1
  0
CLASS
  1
HATCH
  2
AcDbHatch
  3
ObjectDBX Classes
 90
        0
280
     0
281
     1
  0
CLASS
  1
ACDBPLACEHOLDER
  2
AcDbPlaceHolder
  3
ObjectDBX Classes
 90
        0
280
     0
281
     0
  0
CLASS
  1
LAYOUT
  2
AcDbLayout
  3
ObjectDBX Classes
 90
        0
280
     0
281
     0
  0
ENDSEC
  0
SECTION
  2
TABLES
  0
TABLE
  2
VPORT
  5
8
102
{ACAD_XDICTIONARY
360
454
102
}
330
0
100
AcDbSymbolTable
 70
     1
  0
VPORT
  5
29
330
8
100
AcDbSymbolTableRecord
100
AcDbViewportTableRecord
  2
*ACTIVE
 70
     0
 10
0.0
 20
0.0
 11
1.0
 21
1.0
 12
418.9076497308693
 22
317.749999999999
 13
0.0
 23
0.0
 14
10.0
 24
10.0
 15
10.0
 25
10.0
 16
0.0
 26
0.0
 36
1.0
 17
0.0
 27
0.0
 37
0.0
 40
565.4999999999981
 41
1.24352838101104
 42
50.0
 43
0.0
 44
0.0
 50
0.0
 51
0.0
 71
     0
 72
  1000
 73
     1
 74
     3
 75
     0
 76
     0
 77
     0
 78
     0
  0
ENDTAB
  0
TABLE
  2
LTYPE
  5
5
330
0
100
AcDbSymbolTable
 70
     7
  0
LTYPE
  5
14
330
5
100
AcDbSymbolTableRecord
100
AcDbLinetypeTableRecord
  2
BYBLOCK
 70
     0
  3

 72
    65
 73
     0
 40
0.0
  0
LTYPE
  5
15
330
5
100
AcDbSymbolTableRecord
100
AcDbLinetypeTableRecord
  2
BYLAYER
 70
     0
  3

 72
    65
 73
     0
 40
0.0
  0
LTYPE
  5
16
330
5
100
AcDbSymbolTableRecord
100
AcDbLinetypeTableRecord
  2
CONTINUOUS
 70
     0
  3
Solid line
 72
    65
 73
     0
 40
0.0
  0
LTYPE
  5
6E
330
5
100
AcDbSymbolTableRecord
100
AcDbLinetypeTableRecord
  2
EXLTYPE0
 70
     0
  3
破線
 72
    65
 73
     2
 40
4.0
 49
3.0
 74
     0
 49
-1.0
 74
     0
  0
LTYPE
  5
6F
330
5
100
AcDbSymbolTableRecord
100
AcDbLinetypeTableRecord
  2
EXLTYPE1
 70
     0
  3
点線
 72
    65
 73
     2
 40
2.0
 49
1.0
 74
     0
 49
-1.0
 74
     0
  0
LTYPE
  5
70
330
5
100
AcDbSymbolTableRecord
100
AcDbLinetypeTableRecord
  2
EXLTYPE2
 70
     0
  3
一点鎖線
 72
    65
 73
     4
 40
33.0
 49
30.0
 74
     0
 49
-1.0
 74
     0
 49
1.0
 74
     0
 49
-1.0
 74
     0
  0
LTYPE
  5
71
330
5
100
AcDbSymbolTableRecord
100
AcDbLinetypeTableRecord
  2
EXLTYPE3
 70
     0
  3
二点鎖線
 72
    65
 73
     6
 40
35.0
 49
30.0
 74
     0
 49
-1.0
 74
     0
 49
1.0
 74
     0
 49
-1.0
 74
     0
 49
1.0
 74
     0
 49
-1.0
 74
     0
  0
LTYPE
  5
72
330
5
100
AcDbSymbolTableRecord
100
AcDbLinetypeTableRecord
  2
EXLTYPE4
 70
     0
  3
三点鎖線
 72
    65
 73
     8
 40
37.0
 49
30.0
 74
     0
 49
-1.0
 74
     0
 49
1.0
 74
     0
 49
-1.0
 74
     0
 49
1.0
 74
     0
 49
-1.0
 74
     0
 49
1.0
 74
     0
 49
-1.0
 74
     0
  0
LTYPE
  5
73
330
5
100
AcDbSymbolTableRecord
100
AcDbLinetypeTableRecord
  2
EXLTYPE5
 70
     0
  3
四点鎖線
 72
    65
 73
    10
 40
39.0
 49
30.0
 74
     0
 49
-1.0
 74
     0
 49
1.0
 74
     0
 49
-1.0
 74
     0
 49
1.0
 74
     0
 49
-1.0
 74
     0
 49
1.0
 74
     0
 49
-1.0
 74
     0
 49
1.0
 74
     0
 49
-1.0
 74
     0
  0
ENDTAB
  0
TABLE
  2
LAYER
  5
2
330
0
100
AcDbSymbolTable
 70
     4
  0
LAYER
  5
10
330
2
100
AcDbSymbolTableRecord
100
AcDbLayerTableRecord
  2
0
 70
     0
 62
     7
  6
CONTINUOUS
  0
LAYER
  5
76
330
2
100
AcDbSymbolTableRecord
100
AcDbLayerTableRecord
  2
LAY-1
 70
     0
 62
     3
  6
CONTINUOUS
  0
LAYER
  5
77
330
2
100
AcDbSymbolTableRecord
100
AcDbLayerTableRecord
  2
LAY-2
 70
     0
 62
     7
  6
CONTINUOUS
  0
LAYER
  5
78
330
2
100
AcDbSymbolTableRecord
100
AcDbLayerTableRecord
  2
LAY-5
 70
     0
 62
     1
  6
CONTINUOUS
  0
ENDTAB
  0
TABLE
  2
STYLE
  5
3
330
0
100
AcDbSymbolTable
 70
     3
  0
STYLE
  5
11
330
3
100
AcDbSymbolTableRecord
100
AcDbTextStyleTableRecord
  2
STANDARD
 70
     0
 40
0.0
 41
1.0
 50
0.0
 71
     0
 42
2.5
  3
monotxt
  4
extfont
  0
STYLE
  5
74
330
3
100
AcDbSymbolTableRecord
100
AcDbTextStyleTableRecord
  2
EXCADSTD
 70
     0
 40
0.0
 41
1.0
 50
0.0
 71
     0
 42
2.5
  3
monotxt
  4
extfont
  0
STYLE
  5
75
330
3
100
AcDbSymbolTableRecord
100
AcDbTextStyleTableRecord
  2
EXCADVERT
 70
     4
 40
0.0
 41
1.0
 50
0.0
 71
     0
 42
2.5
  3
monotxt
  4
extfont
  0
ENDTAB
  0
TABLE
  2
VIEW
  5
6
330
0
100
AcDbSymbolTable
 70
     0
  0
ENDTAB
  0
TABLE
  2
UCS
  5
7
330
0
100
AcDbSymbolTable
 70
     0
  0
ENDTAB
  0
TABLE
  2
APPID
  5
9
330
0
100
AcDbSymbolTable
 70
     2
  0
APPID
  5
12
330
9
100
AcDbSymbolTableRecord
100
AcDbRegAppTableRecord
  2
ACAD
 70
     0
  0
APPID
  5
45E
330
9
100
AcDbSymbolTableRecord
100
AcDbRegAppTableRecord
  2
ACAD_MLEADERVER
 70
     0
  0
ENDTAB
  0
TABLE
  2
DIMSTYLE
  5
A
330
0
100
AcDbSymbolTable
 70
     1
  0
DIMSTYLE
105
27
330
A
100
AcDbSymbolTableRecord
100
AcDbDimStyleTableRecord
  2
ISO-25
 70
     0
  3

  4

  5

  6

  7

 40
1.0
 41
2.5
 42
0.625
 43
3.75
 44
1.25
 45
0.0
 46
0.0
 47
0.0
 48
0.0
140
2.5
141
2.5
142
0.0
143
0.03937007874016
144
1.0
145
0.0
146
1.0
147
0.625
 71
     0
 72
     0
 73
     0
 74
     0
 75
     0
 76
     0
 77
     1
 78
     8
170
     0
171
     3
172
     1
173
     0
174
     0
175
     0
176
     0
177
     0
178
     0
270
     2
271
     2
272
     2
273
     2
274
     3
340
11
275
     0
280
     0
281
     0
282
     0
283
     0
284
     8
285
     0
286
     0
287
     5
288
     0
  0
ENDTAB
  0
TABLE
  2
BLOCK_RECORD
  5
1
330
0
100
AcDbSymbolTable
 70
    15
  0
BLOCK_RECORD
  5
1F
330
1
100
AcDbSymbolTableRecord
100
AcDbBlockTableRecord
  2
*MODEL_SPACE
  0
BLOCK_RECORD
  5
1B
330
1
100
AcDbSymbolTableRecord
100
AcDbBlockTableRecord
  2
*PAPER_SPACE
  0
BLOCK_RECORD
  5
79
330
1
100
AcDbSymbolTableRecord
100
AcDbBlockTableRecord
  2
EX_NORM
  0
BLOCK_RECORD
  5
7C
330
1
100
AcDbSymbolTableRecord
100
AcDbBlockTableRecord
  2
EX_BNORM
  0
BLOCK_RECORD
  5
7F
330
1
100
AcDbSymbolTableRecord
100
AcDbBlockTableRecord
  2
EX_BCIR
  0
BLOCK_RECORD
  5
82
330
1
100
AcDbSymbolTableRecord
100
AcDbBlockTableRecord
  2
EX_RCIVIL
  0
BLOCK_RECORD
  5
85
330
1
100
AcDbSymbolTableRecord
100
AcDbBlockTableRecord
  2
EX_SLANT
  0
BLOCK_RECORD
  5
88
330
1
100
AcDbSymbolTableRecord
100
AcDbBlockTableRecord
  2
EX_NONE
  0
BLOCK_RECORD
  5
8B
330
1
100
AcDbSymbolTableRecord
100
AcDbBlockTableRecord
  2
EX_CIVIL
  0
BLOCK_RECORD
  5
8E
330
1
100
AcDbSymbolTableRecord
100
AcDbBlockTableRecord
  2
EX_WCIR
  0
BLOCK_RECORD
  5
91
330
1
100
AcDbSymbolTableRecord
100
AcDbBlockTableRecord
  2
EX_WCIR2
  0
BLOCK_RECORD
  5
94
330
1
100
AcDbSymbolTableRecord
100
AcDbBlockTableRecord
  2
EX_WNORM
  0
BLOCK_RECORD
  5
97
330
1
100
AcDbSymbolTableRecord
100
AcDbBlockTableRecord
  2
EX_NNORM
  0
BLOCK_RECORD
  5
9A
330
1
100
AcDbSymbolTableRecord
100
AcDbBlockTableRecord
  2
EX_BBOX
  0
BLOCK_RECORD
  5
9D
330
1
100
AcDbSymbolTableRecord
100
AcDbBlockTableRecord
  2
EX_WBOX
  0
BLOCK_RECORD
  5
A0
330
1
100
AcDbSymbolTableRecord
100
AcDbBlockTableRecord
  2
EX_INTEGRAL
  0
BLOCK_RECORD
  5
A3
330
1
100
AcDbSymbolTableRecord
100
AcDbBlockTableRecord
  2
SYM-1
  0
ENDTAB
  0
ENDSEC
  0
SECTION
  2
BLOCKS
  0
BLOCK
  5
20
330
1F
100
AcDbEntity
  8
0
100
AcDbBlockBegin
  2
*MODEL_SPACE
 70
     0
 10
0.0
 20
0.0
 30
0.0
  3
*MODEL_SPACE
  1

  0
ENDBLK
  5
21
330
1F
100
AcDbEntity
  8
0
100
AcDbBlockEnd
  0
BLOCK
  5
1C
330
1B
100
AcDbEntity
 67
     1
  8
0
100
AcDbBlockBegin
  2
*PAPER_SPACE
 70
     0
 10
0.0
 20
0.0
 30
0.0
  3
*PAPER_SPACE
  1

  0
ENDBLK
  5
1D
330
1B
100
AcDbEntity
 67
     1
  8
0
100
AcDbBlockEnd
  0
BLOCK
  5
7A
330
79
100
AcDbEntity
  8
0
100
AcDbBlockBegin
  2
EX_NORM
 70
     0
 10
0.0
 20
0.0
 30
0.0
  3
EX_NORM
  1

  0
LINE
  5
A6
330
79
100
AcDbEntity
  8
0
  6
CONTINUOUS
 62
     0
100
AcDbLine
 10
0.0
 20
0.0
 30
0.0
 11
-1.0
 21
0.0
 31
0.0
  0
LINE
  5
A7
330
79
100
AcDbEntity
  8
0
  6
CONTINUOUS
 62
     0
100
AcDbLine
 10
0.0
 20
0.0
 30
0.0
 11
-1.0
 21
0.166666667
 31
0.0
  0
LINE
  5
A8
330
79
100
AcDbEntity
  8
0
  6
CONTINUOUS
 62
     0
100
AcDbLine
 10
0.0
 20
0.0
 30
0.0
 11
-1.0
 21
-0.166666667
 31
0.0
  0
ENDBLK
  5
7B
330
79
100
AcDbEntity
  8
0
100
AcDbBlockEnd
  0
BLOCK
  5
7D
330
7C
100
AcDbEntity
  8
0
100
AcDbBlockBegin
  2
EX_BNORM
 70
     0
 10
0.0
 20
0.0
 30
0.0
  3
EX_BNORM
  1

  0
LINE
  5
A9
330
7C
100
AcDbEntity
  8
0
  6
CONTINUOUS
 62
     0
100
AcDbLine
 10
0.0
 20
0.0
 30
0.0
 11
-1.0
 21
0.0
 31
0.0
  0
LINE
  5
AA
330
7C
100
AcDbEntity
  8
0
  6
CONTINUOUS
 62
     0
100
AcDbLine
 10
0.0
 20
0.0
 30
0.0
 11
-1.0
 21
0.166666667
 31
0.0
  0
LINE
  5
AB
330
7C
100
AcDbEntity
  8
0
  6
CONTINUOUS
 62
     0
100
AcDbLine
 10
0.0
 20
0.0
 30
0.0
 11
-1.0
 21
-0.166666667
 31
0.0
  0
LINE
  5
AC
330
7C
100
AcDbEntity
  8
0
  6
CONTINUOUS
 62
     0
100
AcDbLine
 10
0.0
 20
0.0
 30
0.0
 11
-1.0
 21
0.083333333
 31
0.0
  0
LINE
  5
AD
330
7C
100
AcDbEntity
  8
0
  6
CONTINUOUS
 62
     0
100
AcDbLine
 10
0.0
 20
0.0
 30
0.0
 11
-1.0
 21
-0.083333333
 31
0.0
  0
LINE
  5
AE
330
7C
100
AcDbEntity
  8
0
  6
CONTINUOUS
 62
     0
100
AcDbLine
 10
-1.0
 20
0.166666667
 30
0.0
 11
-1.0
 21
-0.166666667
 31
0.0
  0
ENDBLK
  5
7E
330
7C
100
AcDbEntity
  8
0
100
AcDbBlockEnd
  0
BLOCK
  5
80
330
7F
100
AcDbEntity
  8
0
100
AcDbBlockBegin
  2
EX_BCIR
 70
     0
 10
0.0
 20
0.0
 30
0.0
  3
EX_BCIR
  1

  0
LINE
  5
AF
330
7F
100
AcDbEntity
  8
0
  6
CONTINUOUS
 62
     0
100
AcDbLine
 10
0.0
 20
0.0
 30
0.0
 11
-1.0
 21
0.0
 31
0.0
  0
CIRCLE
  5
B0
330
7F
100
AcDbEntity
  8
0
  6
CONTINUOUS
 62
     0
100
AcDbCircle
 10
0.0
 20
0.0
 30
0.0
 40
0.5
  0
CIRCLE
  5
B1
330
7F
100
AcDbEntity
  8
0
  6
CONTINUOUS
 62
     0
100
AcDbCircle
 10
0.0
 20
0.0
 30
0.0
 40
0.25
  0
ENDBLK
  5
81
330
7F
100
AcDbEntity
  8
0
100
AcDbBlockEnd
  0
BLOCK
  5
83
330
82
100
AcDbEntity
  8
0
100
AcDbBlockBegin
  2
EX_RCIVIL
 70
     0
 10
0.0
 20
0.0
 30
0.0
  3
EX_RCIVIL
  1

  0
LINE
  5
B2
330
82
100
AcDbEntity
  8
0
  6
CONTINUOUS
 62
     0
100
AcDbLine
 10
0.0
 20
0.0
 30
0.0
 11
-1.0
 21
0.0
 31
0.0
  0
LINE
  5
B3
330
82
100
AcDbEntity
  8
0
  6
CONTINUOUS
 62
     0
100
AcDbLine
 10
-1.0
 20
-0.25
 30
0.0
 11
0.0
 21
-0.25
 31
0.0
  0
LINE
  5
B4
330
82
100
AcDbEntity
  8
0
  6
CONTINUOUS
 62
     0
100
AcDbLine
 10
-1.0
 20
-0.125
 30
0.0
 11
0.0
 21
-0.125
 31
0.0
  0
ENDBLK
  5
84
330
82
100
AcDbEntity
  8
0
100
AcDbBlockEnd
  0
BLOCK
  5
86
330
85
100
AcDbEntity
  8
0
100
AcDbBlockBegin
  2
EX_SLANT
 70
     0
 10
0.0
 20
0.0
 30
0.0
  3
EX_SLANT
  1

  0
LINE
  5
B5
330
85
100
AcDbEntity
  8
0
  6
CONTINUOUS
 62
     0
100
AcDbLine
 10
0.0
 20
0.0
 30
0.0
 11
-1.0
 21
0.0
 31
0.0
  0
LINE
  5
B6
330
85
100
AcDbEntity
  8
0
  6
CONTINUOUS
 62
     0
100
AcDbLine
 10
0.707106781
 20
0.707106781
 30
0.0
 11
-0.707106781
 21
-0.707106781
 31
0.0
  0
ENDBLK
  5
87
330
85
100
AcDbEntity
  8
0
100
AcDbBlockEnd
  0
BLOCK
  5
89
330
88
100
AcDbEntity
  8
0
100
AcDbBlockBegin
  2
EX_NONE
 70
     0
 10
0.0
 20
0.0
 30
0.0
  3
EX_NONE
  1

  0
LINE
  5
B7
330
88
100
AcDbEntity
  8
0
  6
CONTINUOUS
 62
     0
100
AcDbLine
 10
0.0
 20
0.0
 30
0.0
 11
-1.0
 21
0.0
 31
0.0
  0
ENDBLK
  5
8A
330
88
100
AcDbEntity
  8
0
100
AcDbBlockEnd
  0
BLOCK
  5
8C
330
8B
100
AcDbEntity
  8
0
100
AcDbBlockBegin
  2
EX_CIVIL
 70
     0
 10
0.0
 20
0.0
 30
0.0
  3
EX_CIVIL
  1

  0
LINE
  5
B8
330
8B
100
AcDbEntity
  8
0
  6
CONTINUOUS
 62
     0
100
AcDbLine
 10
0.0
 20
0.0
 30
0.0
 11
-1.0
 21
0.0
 31
0.0
  0
LINE
  5
B9
330
8B
100
AcDbEntity
  8
0
  6
CONTINUOUS
 62
     0
100
AcDbLine
 10
-1.0
 20
0.25
 30
0.0
 11
0.0
 21
0.25
 31
0.0
  0
LINE
  5
BA
330
8B
100
AcDbEntity
  8
0
  6
CONTINUOUS
 62
     0
100
AcDbLine
 10
-1.0
 20
0.125
 30
0.0
 11
0.0
 21
0.125
 31
0.0
  0
ENDBLK
  5
8D
330
8B
100
AcDbEntity
  8
0
100
AcDbBlockEnd
  0
BLOCK
  5
8F
330
8E
100
AcDbEntity
  8
0
100
AcDbBlockBegin
  2
EX_WCIR
 70
     0
 10
0.0
 20
0.0
 30
0.0
  3
EX_WCIR
  1

  0
LINE
  5
BB
330
8E
100
AcDbEntity
  8
0
  6
CONTINUOUS
 62
     0
100
AcDbLine
 10
0.0
 20
0.0
 30
0.0
 11
-1.0
 21
0.0
 31
0.0
  0
CIRCLE
  5
BC
330
8E
100
AcDbEntity
  8
0
  6
CONTINUOUS
 62
     0
100
AcDbCircle
 10
0.0
 20
0.0
 30
0.0
 40
0.5
  0
ENDBLK
  5
90
330
8E
100
AcDbEntity
  8
0
100
AcDbBlockEnd
  0
BLOCK
  5
92
330
91
100
AcDbEntity
  8
0
100
AcDbBlockBegin
  2
EX_WCIR2
 70
     0
 10
0.0
 20
0.0
 30
0.0
  3
EX_WCIR2
  1

  0
LINE
  5
BD
330
91
100
AcDbEntity
  8
0
  6
CONTINUOUS
 62
     0
100
AcDbLine
 10
-0.5
 20
0.0
 30
0.0
 11
-1.0
 21
0.0
 31
0.0
  0
CIRCLE
  5
BE
330
91
100
AcDbEntity
  8
0
  6
CONTINUOUS
 62
     0
100
AcDbCircle
 10
0.0
 20
0.0
 30
0.0
 40
0.5
  0
ENDBLK
  5
93
330
91
100
AcDbEntity
  8
0
100
AcDbBlockEnd
  0
BLOCK
  5
95
330
94
100
AcDbEntity
  8
0
100
AcDbBlockBegin
  2
EX_WNORM
 70
     0
 10
0.0
 20
0.0
 30
0.0
  3
EX_WNORM
  1

  0
LINE
  5
BF
330
94
100
AcDbEntity
  8
0
  6
CONTINUOUS
 62
     0
100
AcDbLine
 10
-1.0
 20
0.0
 30
0.0
 11
-1.0
 21
0.0
 31
0.0
  0
LINE
  5
C0
330
94
100
AcDbEntity
  8
0
  6
CONTINUOUS
 62
     0
100
AcDbLine
 10
0.0
 20
0.0
 30
0.0
 11
-1.0
 21
0.166666667
 31
0.0
  0
LINE
  5
C1
330
94
100
AcDbEntity
  8
0
  6
CONTINUOUS
 62
     0
100
AcDbLine
 10
0.0
 20
0.0
 30
0.0
 11
-1.0
 21
-0.166666667
 31
0.0
  0
LINE
  5
C2
330
94
100
AcDbEntity
  8
0
  6
CONTINUOUS
 62
     0
100
AcDbLine
 10
-1.0
 20
0.166666667
 30
0.0
 11
-1.0
 21
-0.166666667
 31
0.0
  0
ENDBLK
  5
96
330
94
100
AcDbEntity
  8
0
100
AcDbBlockEnd
  0
BLOCK
  5
98
330
97
100
AcDbEntity
  8
0
100
AcDbBlockBegin
  2
EX_NNORM
 70
     0
 10
0.0
 20
0.0
 30
0.0
  3
EX_NNORM
  1

  0
LINE
  5
C3
330
97
100
AcDbEntity
  8
0
  6
CONTINUOUS
 62
     0
100
AcDbLine
 10
0.0
 20
0.0
 30
0.0
 11
-1.0
 21
0.0
 31
0.0
  0
LINE
  5
C4
330
97
100
AcDbEntity
  8
0
  6
CONTINUOUS
 62
     0
100
AcDbLine
 10
0.0
 20
0.0
 30
0.0
 11
-1.0
 21
0.166666667
 31
0.0
  0
LINE
  5
C5
330
97
100
AcDbEntity
  8
0
  6
CONTINUOUS
 62
     0
100
AcDbLine
 10
0.0
 20
0.0
 30
0.0
 11
-1.0
 21
-0.166666667
 31
0.0
  0
LINE
  5
C6
330
97
100
AcDbEntity
  8
0
  6
CONTINUOUS
 62
     0
100
AcDbLine
 10
-1.0
 20
0.166666667
 30
0.0
 11
-1.0
 21
-0.166666667
 31
0.0
  0
ENDBLK
  5
99
330
97
100
AcDbEntity
  8
0
100
AcDbBlockEnd
  0
BLOCK
  5
9B
330
9A
100
AcDbEntity
  8
0
100
AcDbBlockBegin
  2
EX_BBOX
 70
     0
 10
0.0
 20
0.0
 30
0.0
  3
EX_BBOX
  1

  0
LINE
  5
C7
330
9A
100
AcDbEntity
  8
0
  6
CONTINUOUS
 62
     0
100
AcDbLine
 10
0.0
 20
0.0
 30
0.0
 11
-1.0
 21
0.0
 31
0.0
  0
LINE
  5
C8
330
9A
100
AcDbEntity
  8
0
  6
CONTINUOUS
 62
     0
100
AcDbLine
 10
-0.5
 20
0.5
 30
0.0
 11
0.5
 21
0.5
 31
0.0
  0
LINE
  5
C9
330
9A
100
AcDbEntity
  8
0
  6
CONTINUOUS
 62
     0
100
AcDbLine
 10
0.5
 20
0.5
 30
0.0
 11
0.5
 21
-0.5
 31
0.0
  0
LINE
  5
CA
330
9A
100
AcDbEntity
  8
0
  6
CONTINUOUS
 62
     0
100
AcDbLine
 10
0.5
 20
-0.5
 30
0.0
 11
-0.5
 21
-0.5
 31
0.0
  0
LINE
  5
CB
330
9A
100
AcDbEntity
  8
0
  6
CONTINUOUS
 62
     0
100
AcDbLine
 10
-0.5
 20
-0.5
 30
0.0
 11
-0.5
 21
0.5
 31
0.0
  0
LINE
  5
CC
330
9A
100
AcDbEntity
  8
0
  6
CONTINUOUS
 62
     0
100
AcDbLine
 10
-0.25
 20
0.25
 30
0.0
 11
0.25
 21
0.25
 31
0.0
  0
LINE
  5
CD
330
9A
100
AcDbEntity
  8
0
  6
CONTINUOUS
 62
     0
100
AcDbLine
 10
0.25
 20
0.25
 30
0.0
 11
0.25
 21
-0.25
 31
0.0
  0
LINE
  5
CE
330
9A
100
AcDbEntity
  8
0
  6
CONTINUOUS
 62
     0
100
AcDbLine
 10
0.25
 20
-0.25
 30
0.0
 11
-0.25
 21
-0.25
 31
0.0
  0
LINE
  5
CF
330
9A
100
AcDbEntity
  8
0
  6
CONTINUOUS
 62
     0
100
AcDbLine
 10
-0.25
 20
-0.25
 30
0.0
 11
-0.25
 21
0.25
 31
0.0
  0
ENDBLK
  5
9C
330
9A
100
AcDbEntity
  8
0
100
AcDbBlockEnd
  0
BLOCK
  5
9E
330
9D
100
AcDbEntity
  8
0
100
AcDbBlockBegin
  2
EX_WBOX
 70
     0
 10
0.0
 20
0.0
 30
0.0
  3
EX_WBOX
  1

  0
LINE
  5
D0
330
9D
100
AcDbEntity
  8
0
  6
CONTINUOUS
 62
     0
100
AcDbLine
 10
-0.5
 20
0.0
 30
0.0
 11
-1.0
 21
0.0
 31
0.0
  0
LINE
  5
D1
330
9D
100
AcDbEntity
  8
0
  6
CONTINUOUS
 62
     0
100
AcDbLine
 10
-0.5
 20
0.5
 30
0.0
 11
0.5
 21
0.5
 31
0.0
  0
LINE
  5
D2
330
9D
100
AcDbEntity
  8
0
  6
CONTINUOUS
 62
     0
100
AcDbLine
 10
0.5
 20
0.5
 30
0.0
 11
0.5
 21
-0.5
 31
0.0
  0
LINE
  5
D3
330
9D
100
AcDbEntity
  8
0
  6
CONTINUOUS
 62
     0
100
AcDbLine
 10
0.5
 20
-0.5
 30
0.0
 11
-0.5
 21
-0.5
 31
0.0
  0
LINE
  5
D4
330
9D
100
AcDbEntity
  8
0
  6
CONTINUOUS
 62
     0
100
AcDbLine
 10
-0.5
 20
-0.5
 30
0.0
 11
-0.5
 21
0.5
 31
0.0
  0
ENDBLK
  5
9F
330
9D
100
AcDbEntity
  8
0
100
AcDbBlockEnd
  0
BLOCK
  5
A1
330
A0
100
AcDbEntity
  8
0
100
AcDbBlockBegin
  2
EX_INTEGRAL
 70
     0
 10
0.0
 20
0.0
 30
0.0
  3
EX_INTEGRAL
  1

  0
LINE
  5
D5
330
A0
100
AcDbEntity
  8
0
  6
CONTINUOUS
 62
     0
100
AcDbLine
 10
0.0
 20
0.0
 30
0.0
 11
-1.0
 21
0.0
 31
0.0
  0
ARC
  5
D6
330
A0
100
AcDbEntity
  8
0
  6
CONTINUOUS
 62
     0
100
AcDbCircle
 10
0.542115
 20
0.164992
 30
0.0
 40
0.56667
100
AcDbArc
 50
73.07249033629006
 51
196.9275130221199
  0
ARC
  5
D7
330
A0
100
AcDbEntity
  8
0
  6
CONTINUOUS
 62
     0
100
AcDbCircle
 10
-0.542115
 20
-0.164992
 30
0.0
 40
0.56667
100
AcDbArc
 50
253.0724869220464
 51
16.9275130559125
  0
ENDBLK
  5
A2
330
A0
100
AcDbEntity
  8
0
100
AcDbBlockEnd
  0
BLOCK
  5
A4
330
A3
100
AcDbEntity
  8
0
100
AcDbBlockBegin
  2
SYM-1
 70
     0
 10
0.0
 20
0.0
 30
0.0
  3
SYM-1
  1

  0
HATCH
  5
D8
330
A3
100
AcDbEntity
  8
0
  6
CONTINUOUS
 62
     3
100
AcDbHatch
 10
0.0
 20
0.0
 30
0.0
210
0.0
220
0.0
230
1.0
  2
SOLID
 70
     1
 71
     1
 91
        1
 92
        3
 72
     0
 73
     1
 93
       16
 10
24.3511522390115
 20
-2.035714285714445
 10
25.61329509615435
 20
-2.035714285714445
 10
25.61329509615435
 20
-2.850000000000165
 10
22.23400938186861
 20
-2.850000000000165
 10
22.23400938186861
 20
-2.035714285714445
 10
23.5368665247258
 20
-2.035714285714445
 10
23.5368665247258
 20
0.3257142857141346
 10
22.51900938186862
 20
0.3257142857141346
 10
22.51900938186862
 20
1.139999999999851
 10
23.5368665247258
 20
1.139999999999851
 10
23.5368665247258
 20
2.849999999999849
 10
24.3511522390115
 20
2.849999999999849
 10
24.3511522390115
 20
1.139999999999851
 10
25.53186652472582
 20
1.139999999999851
 10
25.53186652472582
 20
0.3257142857141346
 10
24.3511522390115
 20
0.3257142857141346
 97
        0
 75
     0
 76
     1
 98
        1
 10
0.0
 20
0.0
  0
HATCH
  5
D9
330
A3
100
AcDbEntity
  8
0
  6
CONTINUOUS
 62
     3
100
AcDbHatch
 10
0.0
 20
0.0
 30
0.0
210
0.0
220
0.0
230
1.0
  2
SOLID
 70
     1
 71
     1
 91
        1
 92
        3
 72
     1
 73
     1
 93
       17
 10
21.05329509615432
 20
-0.6756813096801944
 42
-0.0318950211674973
 10
20.36115223901144
 20
-1.302857142857277
 42
0.0
 10
19.94887820042958
 20
-0.5887775613918915
 42
0.0949916016553095
 10
21.5107019370243
 20
1.302857142857
 42
0.0
 10
20.15758081044002
 20
1.302857142857
 42
0.0
 10
20.15758081044002
 20
2.035714285714132
 42
0.0
 10
21.05329509615434
 20
2.035714285714132
 42
0.0
 10
21.05329509615434
 20
2.849999999999849
 42
0.0
 10
21.78615223901151
 20
2.849999999999849
 42
0.0
 10
21.78615223901151
 20
2.035714285714132
 42
0.0
 10
22.72258081043999
 20
2.035714285714128
 42
-0.0602864643380152
 10
21.9514458188312
 20
0.4526916201288422
 42
0.0
 10
22.92615223901144
 20
-0.4885714285715821
 42
0.0
 10
22.35027758011683
 20
-1.064446087466226
 42
0.0
 10
21.78615223901151
 20
-0.5196765779765897
 42
0.0
 10
21.78615223901151
 20
-2.850000000000165
 42
0.0
 10
21.05329509615434
 20
-2.850000000000165
 42
0.0
 97
        0
 75
     0
 76
     1
 98
        1
 10
0.0
 20
0.0
  0
HATCH
  5
DA
330
A3
100
AcDbEntity
  8
0
  6
CONTINUOUS
 62
     3
100
AcDbHatch
 10
0.0
 20
0.0
 30
0.0
210
0.0
220
0.0
230
1.0
  2
SOLID
 70
     1
 71
     1
 91
        1
 92
        3
 72
     1
 73
     1
 93
       12
 10
16.0622017500994
 20
-0.9771428571430203
 42
0.0256955875094629
 10
15.54239644170038
 20
-2.035714285714505
 42
0.0
 10
18.04939402928803
 20
-2.035714285714407
 42
0.0232158240455905
 10
17.82885864866331
 20
-1.384285714285877
 42
0.0
 10
18.61043795329712
 20
-1.384285714285877
 42
-0.046485170158253
 10
18.97686652472569
 20
-2.850000000000165
 42
0.0
 10
14.45758081043997
 20
-2.850000000000166
 42
-0.041546145622575
 10
15.2311522390114
 20
-0.9771428571430043
 42
0.0
 10
14.09115223901149
 20
-0.9771428571430043
 42
0.0
 10
14.09115223901149
 20
-0.162857142857284
 42
0.0
 10
19.3025808104401
 20
-0.162857142857284
 42
0.0
 10
19.3025808104401
 20
-0.9771428571430043
 42
0.0
 97
        0
 75
     0
 76
     1
 98
        1
 10
0.0
 20
0.0
  0
HATCH
  5
DB
330
A3
100
AcDbEntity
  8
0
  6
CONTINUOUS
 62
     3
100
AcDbHatch
 10
0.0
 20
0.0
 30
0.0
210
0.0
220
0.0
230
1.0
  2
SOLID
 70
     1
 71
     1
 91
        1
 92
        3
 72
     1
 73
     1
 93
       10
 10
17.84828555094278
 20
1.017857142856991
 42
-0.0302425323326154
 10
16.696866524726
 20
2.091955337622558
 42
0.0
 10
16.696866524726
 20
2.849999999999849
 42
0.0
 10
17.10400938186868
 20
2.849999999999856
 42
0.0677425484492925
 10
19.62829509615438
 20
0.7328571428570001
 42
0.0
 10
19.10034629549093
 20
0.1036722629605595
 42
-0.0240292596661282
 10
18.08115223901148
 20
0.830038905819066
 42
0.0
 10
18.08115223901148
 20
0.2035714285712729
 42
0.0
 10
16.696866524726
 20
0.2035714285712729
 42
0.0
 10
16.696866524726
 20
1.01785714285699
 42
0.0
 97
        0
 75
     0
 76
     1
 98
        1
 10
0.0
 20
0.0
  0
HATCH
  5
DC
330
A3
100
AcDbEntity
  8
0
  6
CONTINUOUS
 62
     3
100
AcDbHatch
 10
0.0
 20
0.0
 30
0.0
210
0.0
220
0.0
230
1.0
  2
SOLID
 70
     1
 71
     1
 91
        1
 92
        3
 72
     1
 73
     1
 93
       10
 10
15.31258081044003
 20
0.83003890581905
 42
-0.0240292596661285
 10
14.29338675396057
 20
0.1036722629605329
 42
0.0
 10
13.76543795329713
 20
0.7328571428569965
 42
0.0677425484492926
 10
16.28972366758284
 20
2.849999999999849
 42
0.0
 10
16.696866524726
 20
2.849999999999849
 42
0.0
 10
16.69686652472578
 20
2.091955337622815
 42
-0.0302425323326223
 10
15.54544749850874
 20
1.01785714285699
 42
0.0
 10
16.696866524726
 20
1.01785714285699
 42
0.0
 10
16.696866524726
 20
0.2035714285712729
 42
0.0
 10
15.31258081044005
 20
0.2035714285712729
 42
0.0
 97
        0
 75
     0
 76
     1
 98
        1
 10
0.0
 20
0.0
  0
HATCH
  5
DD
330
A3
100
AcDbEntity
  8
0
  6
CONTINUOUS
 62
     3
100
AcDbHatch
 10
0.0
 20
0.0
 30
0.0
210
0.0
220
0.0
230
1.0
  2
SOLID
 70
     1
 71
     1
 91
        1
 92
        3
 72
     1
 73
     1
 93
       18
 10
12.3171414448163
 20
1.954285714285571
 42
0.0204820379415322
 10
12.05392127933121
 20
2.849999999999849
 42
0.0
 10
12.91043795329714
 20
2.84999999999985
 42
-0.0190097908790505
 10
13.15472366758285
 20
1.954285714285572
 42
0.0
 10
13.48043795329718
 20
1.954285714285572
 42
0.0
 10
13.48043795329718
 20
1.139999999999841
 42
0.0
 10
11.95809273474724
 20
1.139999999999852
 42
0.0682208717797832
 10
12.63112998335417
 20
-1.082680610277512
 42
0.1684438597742044
 10
13.48043795329718
 20
-1.969113521534577
 42
0.0
 10
13.48043795329718
 20
-2.850000000000173
 42
-0.2072347897570727
 10
11.89105983655683
 20
-1.422323661596438
 42
-0.0716932219901562
 10
11.13446868309276
 20
1.139999999999855
 42
0.0
 10
8.024723667582897
 20
1.139999999999841
 42
0.0
 10
8.024723667582897
 20
1.954285714285572
 42
0.0
 10
11.05035592789417
 20
1.954285714285572
 42
0.0
 10
11.01907689579227
 20
2.849999999999849
 42
0.0
 10
11.8338589532927
 20
2.849999999999849
 42
0.0
 10
11.8651379853946
 20
1.954285714285572
 42
0.0
 97
        0
 75
     0
 76
     1
 98
        1
 10
0.0
 20
0.0
  0
HATCH
  5
DE
330
A3
100
AcDbEntity
  8
0
  6
CONTINUOUS
 62
     3
100
AcDbHatch
 10
0.0
 20
0.0
 30
0.0
210
0.0
220
0.0
230
1.0
  2
SOLID
 70
     1
 71
     1
 91
        1
 92
        3
 72
     1
 73
     1
 93
       12
 10
9.979009381868545
 20
-1.61564377108845
 42
0.0077175353602689
 10
11.2004379532972
 20
-1.457332823601817
 42
0.0
 10
11.20043795329709
 20
-2.280000000000165
 42
-0.0196098337601156
 10
8.024723667582883
 20
-2.605714285714441
 42
0.0
 10
8.024723667582867
 20
-1.789777226430203
 42
0.0071653516467131
 10
9.164723667582884
 20
-1.69997695536356
 42
0.0
 10
9.164723667582884
 20
-0.4071428571430218
 42
0.0
 10
8.024723667582897
 20
-0.4071428571430218
 42
0.0
 10
8.024723667582897
 20
0.4071428571426949
 42
0.0
 10
10.95615223901148
 20
0.4071428571426949
 42
0.0
 10
10.95615223901148
 20
-0.4071428571430218
 42
0.0
 10
9.979009381868629
 20
-0.4071428571430218
 42
0.0
 97
        0
 75
     0
 76
     1
 98
        1
 10
0.0
 20
0.0
  0
HATCH
  5
DF
330
A3
100
AcDbEntity
  8
0
  6
CONTINUOUS
 62
     3
100
AcDbHatch
 10
0.0
 20
0.0
 30
0.0
210
0.0
220
0.0
230
1.0
  2
SOLID
 70
     1
 71
     1
 91
        1
 92
        3
 72
     1
 73
     1
 93
       30
 10
5.134009381868571
 20
-1.330293518482469
 42
-0.0382993261020998
 10
4.21556076329842
 20
-2.338694238572842
 42
0.0
 10
3.66829509615426
 20
-1.791428571428681
 42
0.0560351536284794
 10
4.849009381868498
 20
-0.4071428571430076
 42
0.0
 10
3.871866524725753
 20
-0.4071428571430076
 42
0.0
 10
3.871866524725753
 20
0.4071428571427091
 42
0.0
 10
5.134009381868616
 20
0.4071428571427091
 42
0.0
 10
5.134009381868616
 20
1.221428571428415
 42
0.0
 10
4.728023654221268
 20
1.221428571428411
 42
-0.0155195045322601
 10
4.604410143703056
 20
0.6846232869284066
 42
0.0
 10
3.912580810439931
 20
0.9364285714284013
 42
0.051935582642784
 10
4.156866524725764
 20
2.605714285716569
 42
0.0
 10
4.884483353665184
 20
2.477415807157004
 42
-0.0147879602104266
 10
4.841413989036177
 20
1.954285714285572
 42
0.0
 10
5.134009381868616
 20
1.954285714285572
 42
0.0
 10
5.134009381868616
 20
2.849999999999849
 42
0.0
 10
5.948295096154304
 20
2.849999999999849
 42
0.0
 10
5.948295096154304
 20
1.954285714285572
 42
0.0
 10
7.04758081044006
 20
1.954285714285572
 42
0.0
 10
7.04758081044006
 20
1.221428571428415
 42
0.0
 10
5.948295096154304
 20
1.221428571428415
 42
0.0
 10
5.948295096154304
 20
0.4071428571427091
 42
0.0
 10
7.210437953297152
 20
0.4071428571427091
 42
0.0
 10
7.210437953297152
 20
-0.4071428571430076
 42
0.0
 10
6.233295096154248
 20
-0.4071428571430191
 42
0.0560351536284794
 10
7.414009381868489
 20
-1.791428571428696
 42
0.0
 10
6.866743714724319
 20
-2.338694238572846
 42
-0.0382993261020937
 10
5.948295096154304
 20
-1.330293518482641
 42
0.0
 10
5.948295096154304
 20
-2.850000000000165
 42
0.0
 10
5.134009381868616
 20
-2.850000000000165
 42
0.0
 97
        0
 75
     0
 76
     1
 98
        1
 10
0.0
 20
0.0
  0
HATCH
  5
E0
330
A3
100
AcDbEntity
  8
0
  6
CONTINUOUS
 62
     3
100
AcDbHatch
 10
0.0
 20
0.0
 30
0.0
210
0.0
220
0.0
230
1.0
  2
SOLID
 70
     1
 71
     1
 91
        1
 92
        3
 72
     1
 73
     1
 93
       19
 10
2.609723667582885
 20
-1.058409629912136
 42
-0.0200612023046241
 10
2.253945981009572
 20
-1.675082761784594
 42
0.0
 10
1.6732950961543
 20
-1.221428571428717
 42
0.0725999339496624
 10
2.609723667582777
 20
0.9364285714284151
 42
0.0
 10
1.876866524725735
 20
0.9364285714284151
 42
0.0
 10
1.876866524725735
 20
1.750714285714135
 42
0.0
 10
2.609723667582905
 20
1.750714285714135
 42
0.0
 10
2.609723667582905
 20
2.849999999999849
 42
0.0
 10
3.424009381868593
 20
2.849999999999849
 42
0.0
 10
3.424009381868593
 20
1.750714285714135
 42
0.0
 10
3.790437953297179
 20
1.750714285714135
 42
0.0
 10
3.790437953297179
 20
0.9364285714284151
 42
0.0
 10
3.424009381868537
 20
0.9364285714284151
 42
0.0
 10
3.871866524725753
 20
0.2968222855516665
 42
0.0
 10
3.871866524725753
 20
-0.1989042363292235
 42
0.0
 10
3.627580810439987
 20
-0.4900326139487277
 42
0.0
 10
3.424009381868593
 20
-0.1993024840048498
 42
0.0
 10
3.424009381868593
 20
-2.850000000000165
 42
0.0
 10
2.609723667582905
 20
-2.850000000000165
 42
0.0
 97
        0
 75
     0
 76
     1
 98
        1
 10
0.0
 20
0.0
  0
HATCH
  5
E1
330
A3
100
AcDbEntity
  8
0
  6
CONTINUOUS
 62
     3
100
AcDbHatch
 10
0.0
 20
0.0
 30
0.0
210
0.0
220
0.0
230
1.0
  2
SOLID
 70
     1
 71
     1
 91
        1
 92
        3
 72
     1
 73
     1
 93
        8
 10
-1.829880899650007
 20
-2.05200000000029
 42
0.2679491924310503
 10
-0.4477043552104791
 20
-1.254000000000273
 42
0.267949192431121
 10
-0.4477043552104631
 20
1.253999999999734
 42
0.2679491924310509
 10
-1.82988089965
 20
2.051999999999744
 42
0.0
 10
-1.829880899650007
 20
2.963999999999929
 42
-0.2679491924310369
 10
0.3421108130409469
 20
1.710000000000051
 42
-0.2679491924311528
 10
0.3421108130406774
 20
-1.710000000000919
 42
-0.2679491924310151
 10
-1.82988089965
 20
-2.964000000000375
 42
0.0
 97
        0
 75
     0
 76
     1
 98
        1
 10
0.0
 20
0.0
  0
HATCH
  5
E2
330
A3
100
AcDbEntity
  8
0
  6
CONTINUOUS
 62
     3
100
AcDbHatch
 10
0.0
 20
0.0
 30
0.0
210
0.0
220
0.0
230
1.0
  2
SOLID
 70
     1
 71
     1
 91
        1
 92
        3
 72
     1
 73
     1
 93
        8
 10
-1.829880899650008
 20
-2.964000000000374
 42
-0.2679491924311271
 10
-4.001872612341819
 20
-1.710000000000485
 42
-0.2679491924311523
 10
-4.001872612341573
 20
1.710000000000452
 42
-0.2679491924311101
 10
-1.82988089965
 20
2.963999999999928
 42
0.0
 10
-1.829880899650007
 20
2.051999999999745
 42
0.2679491924311969
 10
-3.212057444090408
 20
1.253999999999726
 42
0.2679491924311206
 10
-3.212057444090417
 20
-1.25400000000028
 42
0.267949192431196
 10
-1.82988089965
 20
-2.052000000000291
 42
0.0
 97
        0
 75
     0
 76
     1
 98
        1
 10
0.0
 20
0.0
  0
HATCH
  5
E3
330
A3
100
AcDbEntity
  8
0
  6
CONTINUOUS
 62
     3
100
AcDbHatch
 10
0.0
 20
0.0
 30
0.0
210
0.0
220
0.0
230
1.0
  2
SOLID
 70
     1
 71
     1
 91
        1
 92
        3
 72
     0
 73
     1
 93
        4
 10
-5.363880899650461
 20
-1.02600000000027
 10
-6.275880899650438
 20
-1.02600000000027
 10
-6.275880899650438
 20
-0.1140000000002743
 10
-5.363880899650461
 20
-0.1140000000002743
 97
        0
 75
     0
 76
     1
 98
        1
 10
0.0
 20
0.0
  0
HATCH
  5
E4
330
A3
100
AcDbEntity
  8
0
  6
CONTINUOUS
 62
     3
100
AcDbHatch
 10
0.0
 20
0.0
 30
0.0
210
0.0
220
0.0
230
1.0
  2
SOLID
 70
     1
 71
     1
 91
        1
 92
        3
 72
     0
 73
     1
 93
       16
 10
-9.695880899650469
 20
1.937999999999732
 10
-10.94988089965046
 20
1.937999999999732
 10
-11.17788089965047
 20
0.6839999999997275
 10
-11.86188089965044
 20
0.6839999999997275
 10
-11.86188089965044
 20
2.849999999999742
 10
-6.617880899650451
 20
2.849999999999742
 10
-6.617880899650451
 20
0.6839999999997275
 10
-7.301880899650421
 20
0.6839999999997275
 10
-7.529880899650429
 20
1.937999999999732
 10
-8.783880899650477
 20
1.937999999999732
 10
-8.783880899650434
 20
-1.938000000000276
 10
-7.871880899650442
 20
-2.166000000000285
 10
-7.871880899650442
 20
-2.850000000000286
 10
-10.60788089965045
 20
-2.850000000000286
 10
-10.60788089965045
 20
-2.166000000000285
 10
-9.695880899650469
 20
-1.938000000000276
 97
        0
 75
     0
 76
     1
 98
        1
 10
0.0
 20
0.0
  0
HATCH
  5
E5
330
A3
100
AcDbEntity
  8
0
  6
CONTINUOUS
 62
     3
100
AcDbHatch
 10
0.0
 20
0.0
 30
0.0
210
0.0
220
0.0
230
1.0
  2
SOLID
 70
     1
 71
     1
 91
        1
 92
        3
 72
     0
 73
     1
 93
        4
 10
-13.11588089965048
 20
-1.02600000000027
 10
-13.11588089965043
 20
-0.1140000000002175
 10
-12.20388089965045
 20
-0.1140000000002743
 10
-12.20388089965045
 20
-1.02600000000027
 97
        0
 75
     0
 76
     1
 98
        1
 10
0.0
 20
0.0
  0
HATCH
  5
E6
330
A3
100
AcDbEntity
  8
0
  6
CONTINUOUS
 62
     3
100
AcDbHatch
 10
0.0
 20
0.0
 30
0.0
210
0.0
220
0.0
230
1.0
  2
SOLID
 70
     1
 71
     1
 91
        1
 92
        3
 72
     0
 73
     1
 93
       12
 10
-14.14188089965047
 20
2.849999999999742
 10
-14.14188089965047
 20
2.16599999999973
 10
-15.05388089965044
 20
1.937999999999732
 10
-15.05388089965044
 20
-1.938000000000276
 10
-14.14188089965047
 20
-2.166000000000285
 10
-14.14188089965047
 20
-2.850000000000286
 10
-16.87788089965047
 20
-2.850000000000286
 10
-16.87788089965047
 20
-2.166000000000285
 10
-15.96588089965048
 20
-1.938000000000276
 10
-15.96588089965048
 20
1.937999999999732
 10
-16.87788089965047
 20
2.165999999999741
 10
-16.87788089965047
 20
2.849999999999742
 97
        0
 75
     0
 76
     1
 98
        1
 10
0.0
 20
0.0
  0
HATCH
  5
E7
330
A3
100
AcDbEntity
  8
0
  6
CONTINUOUS
 62
     3
100
AcDbHatch
 10
0.0
 20
0.0
 30
0.0
210
0.0
220
0.0
230
1.0
  2
SOLID
 70
     1
 71
     1
 91
        1
 92
        3
 72
     1
 73
     1
 93
       15
 10
-24.50859841427041
 20
-2.090869956561225
 42
-0.2479327466132013
 10
-25.61329509615362
 20
0.0
 42
0.0
 10
-24.65823426252824
 20
-0.0000000000000002
 42
0.0851341857469254
 10
-24.51749109727588
 20
-0.8206050339814059
 42
0.0986382041447898
 10
-24.10137304113623
 20
-0.7218299436021526
 42
0.2932733248970212
 10
-23.90182953111929
 20
-0.4108897586745677
 42
0.0
 10
-23.90182953111929
 20
0.0
 42
0.0
 10
-23.08094744291048
 20
0.0
 42
0.0
 10
-23.08094744291045
 20
-0.4116155274721613
 42
0.2932733248970227
 10
-22.88140393289353
 20
-0.7225557123997662
 42
0.0986382041447956
 10
-22.46528587675381
 20
-0.8213308027789985
 42
0.0
 10
-22.46528587675381
 20
-1.026551324831182
 42
0.0
 10
-24.43407387057687
 20
-1.026551324831195
 42
0.2846821906946901
 10
-22.272999999999
 20
-2.461429260939799
 42
0.0
 10
-22.27299999999901
 20
-2.803950381328971
 42
-0.1459753572646559
 97
        0
 75
     0
 76
     1
 98
        1
 10
0.0
 20
0.0
  0
HATCH
  5
E8
330
A3
100
AcDbEntity
  8
0
  6
CONTINUOUS
 62
     3
100
AcDbHatch
 10
0.0
 20
0.0
 30
0.0
210
0.0
220
0.0
230
1.0
  2
SOLID
 70
     1
 71
     1
 91
        1
 92
        3
 72
     1
 73
     1
 93
       24
 10
-22.67055612196938
 20
0.6840684068405485
 42
0.3027756377320026
 10
-22.98628000204974
 20
0.4735858201203201
 42
0.0990195135927522
 10
-23.08099716607381
 20
0.0
 42
0.0
 10
-23.90182953111929
 20
0.0
 42
0.0
 10
-23.90182953111929
 20
1.775772072931018
 42
0.2041065183978106
 10
-24.65823426252824
 20
0.0
 42
0.0
 10
-25.61329509615362
 20
-0.0000000000000005
 42
-0.2479327466131622
 10
-24.50859841427033
 20
2.090869956560942
 42
-0.0425119632079822
 10
-23.90182953111929
 20
2.433221258786119
 42
0.0
 10
-23.90182953111931
 20
2.804957522274243
 42
0.2932733248970212
 10
-24.10137304113625
 20
3.115897707201849
 42
0.0986382041447921
 10
-24.5174910972759
 20
3.214672797581073
 42
0.0
 10
-24.5174910972759
 20
3.419893319633275
 42
0.0
 10
-22.46528587675381
 20
3.419893319633275
 42
0.0
 10
-22.46528587675386
 20
3.214672797581075
 42
0.0986382041447851
 10
-22.88140393289352
 20
3.115897707201833
 42
0.2932733248969983
 10
-23.08094744291043
 20
2.804957522274243
 42
0.0
 10
-23.08094744291043
 20
2.708052920534188
 42
-0.0496798992579211
 10
-22.272999999999
 20
2.803950381328672
 42
0.0
 10
-22.272999999999
 20
2.461429260939532
 42
0.0842759109890063
 10
-23.08094744291048
 20
2.297991574791311
 42
0.0
 10
-23.08094744291048
 20
1.026102610260892
 42
0.0
 10
-22.27299999999897
 20
1.026102610260892
 42
0.0
 10
-22.272999999999
 20
0.6840684068405416
 42
0.0
 97
        0
 75
     0
 76
     1
 98
        1
 10
0.0
 20
0.0
  0
HATCH
  5
E9
330
A3
100
AcDbEntity
  8
0
  6
CONTINUOUS
 62
     3
100
AcDbHatch
 10
0.0
 20
0.0
 30
0.0
210
0.0
220
0.0
230
1.0
  2
SOLID
 70
     1
 71
     1
 91
        1
 92
        3
 72
     1
 73
     1
 93
       14
 10
-19.73294173327529
 20
0.0
 42
0.0405216457160254
 10
-19.76518515433919
 20
0.3972010104234832
 42
0.3675231814697204
 10
-20.10274110483399
 20
0.6840684068405416
 42
0.0
 10
-20.82745118422041
 20
0.6840684068405416
 42
0.0
 10
-20.82745118422041
 20
0.0
 42
0.0
 10
-21.64833327242921
 20
0.0
 42
0.0
 10
-21.64833327242921
 20
0.6840684068405416
 42
0.0
 10
-22.272999999999
 20
0.6840684068405416
 42
0.0
 10
-22.272999999999
 20
1.026102610260892
 42
0.0
 10
-19.95689640281894
 20
1.026102610260884
 42
0.3018084962625866
 10
-22.272999999999
 20
2.461429260939532
 42
0.0
 10
-22.272999999999
 20
2.80395038132867
 42
-0.1556207860285077
 10
-19.88257758153312
 20
2.09086995656093
 42
-0.2479327466131704
 10
-18.77788089964991
 20
0.0
 42
0.0
 97
        0
 75
     0
 76
     1
 98
        1
 10
0.0
 20
0.0
  0
HATCH
  5
EA
330
A3
100
AcDbEntity
  8
0
  6
CONTINUOUS
 62
     3
100
AcDbHatch
 10
0.0
 20
0.0
 30
0.0
210
0.0
220
0.0
230
1.0
  2
SOLID
 70
     1
 71
     1
 91
        1
 92
        3
 72
     1
 73
     1
 93
       19
 10
-20.8274511842204
 20
-2.047639686011457
 42
0.2504916501726884
 10
-19.73294173327529
 20
0.0
 42
0.0
 10
-18.77788089964991
 20
0.0
 42
-0.2479327466132034
 10
-19.88257758153318
 20
-2.090869956561292
 42
-0.0647982499650098
 10
-20.82745118422041
 20
-2.569945301182951
 42
0.0
 10
-20.82745118422039
 20
-2.805406236844544
 42
0.2932733248970212
 10
-20.62790767420345
 20
-3.116346421772153
 42
0.0986382041447949
 10
-20.21178961806374
 20
-3.215121512151377
 42
0.0
 10
-20.21178961806374
 20
-3.420342034203578
 42
0.0
 10
-22.26399483858583
 20
-3.420342034203578
 42
0.0
 10
-22.26399483858581
 20
-3.215121512151375
 42
0.0986382041447934
 10
-21.84787678244615
 20
-3.116346421772128
 42
0.2932733248970212
 10
-21.64833327242921
 20
-2.805406236844544
 42
0.0
 10
-21.64833327242921
 20
-2.768033212587629
 42
-0.0381668652852349
 10
-22.272999999999
 20
-2.803950381328971
 42
0.0
 10
-22.272999999999
 20
-2.461429260939799
 42
0.0639702334410101
 10
-21.64833327242921
 20
-2.401070363426978
 42
0.0
 10
-21.64833327242921
 20
0.0
 42
0.0
 10
-20.82745118422041
 20
0.0
 42
0.0
 97
        0
 75
     0
 76
     1
 98
        1
 10
0.0
 20
0.0
  0
ENDBLK
  5
A5
330
A3
100
AcDbEntity
  8
0
100
AcDbBlockEnd
  0
ENDSEC
  0
SECTION
  2
ENTITIES
  0
LINE
  5
EB
330
1F
100
AcDbEntity
  8
LAY-1
  6
EXLTYPE2
 62
     1
100
AcDbLine
 10
366.00000000004
 20
305.3
 30
0.0
 11
366.00000000004
 21
409.9000000000001
 31
0.0
  0
TEXT
  5
EC
330
1F
100
AcDbEntity
  8
LAY-1
  6
CONTINUOUS
 62
     3
100
AcDbText
 10
347.0287388658491
 20
379.1896015312972
 30
0.0
 40
2.806299285658455
  1
ＯＰＥＮ
 50
34.99999999999991
 41
1.176483666582412
  7
EXCADSTD
 72
     5
 11
355.9149003922873
 21
385.4117588178583
 31
0.0
100
AcDbText
  0
TEXT
  5
ED
330
1F
100
AcDbEntity
  8
LAY-1
  6
CONTINUOUS
 62
     3
100
AcDbText
 10
375.7148428775245
 20
385.671015371465
 30
0.0
 40
2.806299285658455
  1
ＳＨＵＴ
 50
325.0000000000001
 41
1.176483666582412
  7
EXCADSTD
 72
     5
 11
384.6010044039627
 21
379.4488580849039
 31
0.0
100
AcDbText
  0
CIRCLE
  5
EE
330
1F
100
AcDbEntity
  8
LAY-1
  6
CONTINUOUS
 62
     2
100
AcDbCircle
 10
366.00000000004
 20
357.5
 30
0.0
 40
10.0
  0
CIRCLE
  5
EF
330
1F
100
AcDbEntity
  8
LAY-1
  6
CONTINUOUS
 62
     2
100
AcDbCircle
 10
366.00000000004
 20
357.5
 30
0.0
 40
27.00000000000001
  0
ARC
  5
F0
330
1F
100
AcDbEntity
  8
LAY-1
  6
CONTINUOUS
 62
     2
100
AcDbCircle
 10
451.1087418222589
 20
322.2468048607286
 30
0.0
 40
56.00000000000002
100
AcDbArc
 50
145.6635745399944
 51
169.3364254600094
  0
ARC
  5
F1
330
1F
100
AcDbEntity
  8
LAY-1
  6
CONTINUOUS
 62
     2
100
AcDbCircle
 10
399.50000000004
 20
357.5
 30
0.0
 40
6.500000000000004
100
AcDbArc
 50
325.6635745399943
 51
0.0
  0
ARC
  5
F2
330
1F
100
AcDbEntity
  8
LAY-1
  6
CONTINUOUS
 62
     2
100
AcDbCircle
 10
389.6880771697899
 20
333.8119228302501
 30
0.0
 40
6.500000000000004
100
AcDbArc
 50
315.0000000000002
 51
349.3364254600097
  0
ARC
  5
F3
330
1F
100
AcDbEntity
  8
LAY-1
  6
CONTINUOUS
 62
     2
100
AcDbCircle
 10
389.6880771697909
 20
333.811922830251
 30
0.0
 40
6.500000000000004
100
AcDbArc
 50
280.6635745399903
 51
315.0000000000002
  0
ARC
  5
F4
330
1F
100
AcDbEntity
  8
LAY-1
  6
CONTINUOUS
 62
     2
100
AcDbCircle
 10
401.2531951393121
 20
272.3912581777819
 30
0.0
 40
56.00000000000004
100
AcDbArc
 50
100.6635745399906
 51
124.3364254600056
  0
ARC
  5
F5
330
1F
100
AcDbEntity
  8
LAY-1
  6
CONTINUOUS
 62
     2
100
AcDbCircle
 10
366.0000000000409
 20
324.0000000000009
 30
0.0
 40
6.500000000000004
100
AcDbArc
 50
270.0000000000002
 51
304.3364254600058
  0
ARC
  5
F6
330
1F
100
AcDbEntity
  8
LAY-1
  6
CONTINUOUS
 62
     2
100
AcDbCircle
 10
399.50000000004
 20
357.5
 30
0.0
 40
6.500000000000004
100
AcDbArc
 50
0.0
 51
34.3364254600057
  0
ARC
  5
F7
330
1F
100
AcDbEntity
  8
LAY-1
  6
CONTINUOUS
 62
     2
100
AcDbCircle
 10
451.1087418222589
 20
392.7531951392714
 30
0.0
 40
56.00000000000004
100
AcDbArc
 50
190.6635745399906
 51
214.3364254600056
  0
ARC
  5
F8
330
1F
100
AcDbEntity
  8
LAY-1
  6
CONTINUOUS
 62
     2
100
AcDbCircle
 10
389.6880771697899
 20
381.1880771697499
 30
0.0
 40
6.500000000000004
100
AcDbArc
 50
10.66357453999027
 51
44.99999999999998
  0
ARC
  5
F9
330
1F
100
AcDbEntity
  8
LAY-1
  6
CONTINUOUS
 62
     2
100
AcDbCircle
 10
389.6880771697909
 20
381.1880771697492
 30
0.0
 40
6.500000000000004
100
AcDbArc
 50
44.99999999999998
 51
79.33642546000969
  0
ARC
  5
FA
330
1F
100
AcDbEntity
  8
LAY-1
  6
CONTINUOUS
 62
     2
100
AcDbCircle
 10
401.2531951393121
 20
442.6087418222182
 30
0.0
 40
56.00000000000004
100
AcDbArc
 50
235.6635745399946
 51
259.3364254600094
  0
ARC
  5
FB
330
1F
100
AcDbEntity
  8
LAY-1
  6
CONTINUOUS
 62
     2
100
AcDbCircle
 10
366.0000000000409
 20
390.9999999999993
 30
0.0
 40
6.500000000000004
100
AcDbArc
 50
55.6635745399941
 51
90.00000000000001
  0
ARC
  5
FC
330
1F
100
AcDbEntity
  8
LAY-1
  6
CONTINUOUS
 62
     2
100
AcDbCircle
 10
342.3119228302901
 20
381.1880771697499
 30
0.0
 40
6.500000000000004
100
AcDbArc
 50
135.0000000000001
 51
169.3364254600098
  0
ARC
  5
FD
330
1F
100
AcDbEntity
  8
LAY-1
  6
CONTINUOUS
 62
     2
100
AcDbCircle
 10
342.3119228302892
 20
381.1880771697492
 30
0.0
 40
6.500000000000004
100
AcDbArc
 50
100.6635745399903
 51
135.0000000000001
  0
ARC
  5
FE
330
1F
100
AcDbEntity
  8
LAY-1
  6
CONTINUOUS
 62
     2
100
AcDbCircle
 10
330.7468048607677
 20
442.6087418222182
 30
0.0
 40
56.00000000000004
100
AcDbArc
 50
280.6635745399906
 51
304.3364254600058
  0
ARC
  5
FF
330
1F
100
AcDbEntity
  8
LAY-1
  6
CONTINUOUS
 62
     2
100
AcDbCircle
 10
366.0000000000391
 20
390.9999999999993
 30
0.0
 40
6.500000000000004
100
AcDbArc
 50
90.00000000000001
 51
124.3364254600059
  0
ARC
  5
100
330
1F
100
AcDbEntity
  8
LAY-1
  6
CONTINUOUS
 62
     2
100
AcDbCircle
 10
280.891258177821
 20
392.7531951392714
 30
0.0
 40
56.00000000000004
100
AcDbArc
 50
325.6635745399944
 51
349.3364254600097
  0
ARC
  5
101
330
1F
100
AcDbEntity
  8
LAY-1
  6
CONTINUOUS
 62
     2
100
AcDbCircle
 10
332.50000000004
 20
357.5
 30
0.0
 40
6.500000000000004
100
AcDbArc
 50
180.0
 51
214.3364254600057
  0
ARC
  5
102
330
1F
100
AcDbEntity
  8
LAY-1
  6
CONTINUOUS
 62
     2
100
AcDbCircle
 10
332.50000000004
 20
357.5
 30
0.0
 40
6.500000000000004
100
AcDbArc
 50
145.6635745399944
 51
180.0
  0
ARC
  5
103
330
1F
100
AcDbEntity
  8
LAY-1
  6
CONTINUOUS
 62
     2
100
AcDbCircle
 10
280.891258177821
 20
322.2468048607286
 30
0.0
 40
56.00000000000004
100
AcDbArc
 50
10.66357453999062
 51
34.33642546000564
  0
ARC
  5
104
330
1F
100
AcDbEntity
  8
LAY-1
  6
CONTINUOUS
 62
     2
100
AcDbCircle
 10
342.3119228302901
 20
333.8119228302501
 30
0.0
 40
6.500000000000004
100
AcDbArc
 50
190.6635745399903
 51
225.0000000000001
  0
ARC
  5
105
330
1F
100
AcDbEntity
  8
LAY-1
  6
CONTINUOUS
 62
     2
100
AcDbCircle
 10
342.3119228302892
 20
333.811922830251
 30
0.0
 40
6.500000000000004
100
AcDbArc
 50
225.0000000000001
 51
259.3364254600098
  0
ARC
  5
106
330
1F
100
AcDbEntity
  8
LAY-1
  6
CONTINUOUS
 62
     2
100
AcDbCircle
 10
330.7468048607677
 20
272.3912581777819
 30
0.0
 40
56.00000000000004
100
AcDbArc
 50
55.66357453999438
 51
79.33642546000941
  0
ARC
  5
107
330
1F
100
AcDbEntity
  8
LAY-1
  6
CONTINUOUS
 62
     2
100
AcDbCircle
 10
366.0000000000391
 20
324.0000000000009
 30
0.0
 40
6.500000000000004
100
AcDbArc
 50
235.6635745399942
 51
270.0000000000002
  0
ARC
  5
108
330
1F
100
AcDbEntity
  8
LAY-1
  6
CONTINUOUS
 62
     2
100
AcDbCircle
 10
373.9495368217426
 20
366.4891525918963
 30
0.0
 40
2.0
100
AcDbArc
 50
183.0885597106198
 51
228.5121354544807
  0
ARC
  5
109
330
1F
100
AcDbEntity
  8
LAY-1
  6
CONTINUOUS
 62
     2
100
AcDbCircle
 10
373.1418412074211
 20
381.4581740574811
 30
0.0
 40
2.0
100
AcDbArc
 50
73.4008800178118
 51
183.0885597106205
  0
ARC
  5
10A
330
1F
100
AcDbEntity
  8
LAY-1
  6
CONTINUOUS
 62
     2
100
AcDbCircle
 10
358.0504631783374
 20
366.4891525918963
 30
0.0
 40
2.0
100
AcDbArc
 50
311.4878645455193
 51
356.9114402893805
  0
LINE
  5
10B
330
1F
100
AcDbEntity
  8
LAY-1
  6
CONTINUOUS
 62
     2
100
AcDbLine
 10
360.8552536894117
 20
381.3504151907307
 30
0.0
 11
360.0475580750904
 21
366.3813937251462
 31
0.0
  0
ARC
  5
10C
330
1F
100
AcDbEntity
  8
LAY-1
  6
CONTINUOUS
 62
     2
100
AcDbCircle
 10
358.858158792659
 20
381.4581740574811
 30
0.0
 40
2.0
100
AcDbArc
 50
356.9114402893795
 51
106.5991199821882
  0
ARC
  5
10D
330
1F
100
AcDbEntity
  8
LAY-1
  6
CONTINUOUS
 62
     2
100
AcDbCircle
 10
357.0108474081437
 20
365.4495368217026
 30
0.0
 40
2.0
100
AcDbArc
 50
273.08855971062
 51
318.5121354544804
  0
LINE
  5
10E
330
1F
100
AcDbEntity
  8
LAY-1
  6
CONTINUOUS
 62
     2
100
AcDbLine
 10
342.1495848093093
 20
362.6447463106283
 30
0.0
 11
357.1186062748939
 21
363.4524419249497
 31
0.0
  0
ARC
  5
10F
330
1F
100
AcDbEntity
  8
LAY-1
  6
CONTINUOUS
 62
     2
100
AcDbCircle
 10
342.0418259425592
 20
364.6418412073813
 30
0.0
 40
2.0
100
AcDbArc
 50
163.4008800178119
 51
273.0885597106206
  0
ARC
  5
110
330
1F
100
AcDbEntity
  8
LAY-1
  6
CONTINUOUS
 62
     2
100
AcDbCircle
 10
357.0108474081437
 20
349.5504631782974
 30
0.0
 40
2.0
100
AcDbArc
 50
41.48786454551897
 51
86.91144028938022
  0
LINE
  5
111
330
1F
100
AcDbEntity
  8
LAY-1
  6
CONTINUOUS
 62
     2
100
AcDbLine
 10
342.1495848093093
 20
352.3552536893719
 30
0.0
 11
357.1186062748939
 21
351.5475580750503
 31
0.0
  0
ARC
  5
112
330
1F
100
AcDbEntity
  8
LAY-1
  6
CONTINUOUS
 62
     2
100
AcDbCircle
 10
342.0418259425592
 20
350.358158792619
 30
0.0
 40
2.0
100
AcDbArc
 50
86.91144028937947
 51
196.5991199821881
  0
ARC
  5
113
330
1F
100
AcDbEntity
  8
LAY-1
  6
CONTINUOUS
 62
     2
100
AcDbCircle
 10
358.0504631783374
 20
348.5108474081037
 30
0.0
 40
2.0
100
AcDbArc
 50
3.088559710619755
 51
48.51213545448071
  0
LINE
  5
114
330
1F
100
AcDbEntity
  8
LAY-1
  6
CONTINUOUS
 62
     2
100
AcDbLine
 10
360.8552536894117
 20
333.6495848092693
 30
0.0
 11
360.0475580750904
 21
348.6186062748541
 31
0.0
  0
ARC
  5
115
330
1F
100
AcDbEntity
  8
LAY-1
  6
CONTINUOUS
 62
     2
100
AcDbCircle
 10
358.858158792659
 20
333.5418259425192
 30
0.0
 40
2.0
100
AcDbArc
 50
253.4008800178118
 51
3.088559710620557
  0
ARC
  5
116
330
1F
100
AcDbEntity
  8
LAY-1
  6
CONTINUOUS
 62
     2
100
AcDbCircle
 10
373.9495368217426
 20
348.5108474081037
 30
0.0
 40
2.0
100
AcDbArc
 50
131.4878645455193
 51
176.9114402893803
  0
ARC
  5
117
330
1F
100
AcDbEntity
  8
LAY-1
  6
CONTINUOUS
 62
     2
100
AcDbCircle
 10
373.1418412074211
 20
333.5418259425192
 30
0.0
 40
2.0
100
AcDbArc
 50
176.9114402893794
 51
286.5991199821882
  0
ARC
  5
118
330
1F
100
AcDbEntity
  8
LAY-1
  6
CONTINUOUS
 62
     2
100
AcDbCircle
 10
374.9891525919363
 20
349.5504631782974
 30
0.0
 40
2.0
100
AcDbArc
 50
93.08855971061972
 51
138.5121354544805
  0
ARC
  5
119
330
1F
100
AcDbEntity
  8
LAY-1
  6
CONTINUOUS
 62
     2
100
AcDbCircle
 10
389.9581740575209
 20
350.358158792619
 30
0.0
 40
2.0
100
AcDbArc
 50
343.400880017812
 51
93.08855971062057
  0
ARC
  5
11A
330
1F
100
AcDbEntity
  8
LAY-1
  6
CONTINUOUS
 62
     2
100
AcDbCircle
 10
374.9891525919363
 20
365.4495368217026
 30
0.0
 40
2.0
100
AcDbArc
 50
221.4878645455189
 51
266.9114402893803
  0
ARC
  5
11B
330
1F
100
AcDbEntity
  8
LAY-1
  6
CONTINUOUS
 62
     2
100
AcDbCircle
 10
389.9581740575209
 20
364.6418412073813
 30
0.0
 40
2.0
100
AcDbArc
 50
266.9114402893795
 51
16.59911998218817
  0
LINE
  5
11C
330
1F
100
AcDbEntity
  8
LAY-1
  6
CONTINUOUS
 62
     2
100
AcDbLine
 10
375.8343829383225
 20
386.8991549166531
 30
0.0
 11
374.0666814001811
 21
388.11685424949
 31
0.0
  0
LINE
  5
11D
330
1F
100
AcDbEntity
  8
LAY-1
  6
CONTINUOUS
 62
     2
100
AcDbLine
 10
356.1656170617639
 20
386.8991549166531
 30
0.0
 11
357.9333185999055
 21
388.11685424949
 31
0.0
  0
ARC
  5
11E
330
1F
100
AcDbEntity
  8
LAY-1
  6
CONTINUOUS
 62
     2
100
AcDbCircle
 10
366.00000000004
 20
363.1568542494902
 30
0.0
 40
25.6984810591365
100
AcDbArc
 50
67.50000000000016
 51
112.4999999999592
  0
LINE
  5
11F
330
1F
100
AcDbEntity
  8
LAY-1
  6
CONTINUOUS
 62
     2
100
AcDbLine
 10
371.1447463106681
 20
381.3504151907307
 30
0.0
 11
371.9524419249897
 21
366.3813937251462
 31
0.0
  0
LINE
  5
120
330
1F
100
AcDbEntity
  8
LAY-1
  6
CONTINUOUS
 62
     2
100
AcDbLine
 10
390.3400273676564
 20
352.3816720901268
 30
0.0
 11
374.541139884635
 21
351.5291987230112
 31
0.0
  0
LINE
  5
121
330
1F
100
AcDbEntity
  8
LAY-1
  6
CONTINUOUS
 62
     2
100
AcDbLine
 10
390.3021141807239
 20
362.6203736224056
 30
0.0
 11
374.541139884635
 21
363.4708012769888
 31
0.0
  0
LINE
  5
122
330
1F
100
AcDbEntity
  8
LAY-1
  6
CONTINUOUS
 62
     2
100
AcDbLine
 10
420.0000004331843
 20
357.5000000000011
 30
0.0
 11
420.000000433184
 21
310.000000000002
 31
0.0
  0
ARC
  5
123
330
1F
100
AcDbEntity
  8
LAY-1
  6
CONTINUOUS
 62
     2
100
AcDbCircle
 10
420.9999995668179
 20
331.0000000000001
 30
0.0
 40
1.0
100
AcDbArc
 50
90.00000000000001
 51
180.0
  0
LINE
  5
124
330
1F
100
AcDbEntity
  8
LAY-1
  6
CONTINUOUS
 62
     2
100
AcDbLine
 10
420.9999995668179
 20
332.0000000000001
 30
0.0
 11
420.9999995668179
 21
357.5
 31
0.0
  0
LINE
  5
125
330
1F
100
AcDbEntity
  8
LAY-1
  6
CONTINUOUS
 62
     2
100
AcDbLine
 10
407.000000433184
 20
311.500000000002
 30
0.0
 11
407.0000004331844
 21
357.5000000000014
 31
0.0
  0
LINE
  5
126
330
1F
100
AcDbEntity
  8
LAY-1
  6
CONTINUOUS
 62
     2
100
AcDbLine
 10
420.000000433184
 20
310.000000000002
 30
0.0
 11
408.500000433184
 21
310.000000000002
 31
0.0
  0
ARC
  5
127
330
1F
100
AcDbEntity
  8
LAY-1
  6
CONTINUOUS
 62
     2
100
AcDbCircle
 10
408.500000433184
 20
311.500000000002
 30
0.0
 40
1.5
100
AcDbArc
 50
180.0
 51
270.0
  0
LINE
  5
128
330
1F
100
AcDbEntity
  8
LAY-1
  6
CONTINUOUS
 62
     2
100
AcDbLine
 10
404.4960042827499
 20
336.7190712766781
 30
0.0
 11
406.0871561759291
 21
336.579863524077
 31
0.0
  0
ARC
  5
129
330
1F
100
AcDbEntity
  8
LAY-1
  6
CONTINUOUS
 62
     2
100
AcDbCircle
 10
406.000000433181
 20
335.583668825985
 30
0.0
 40
1.0
100
AcDbArc
 50
0.0
 51
84.99999999996103
  0
ARC
  5
12A
330
1F
100
AcDbEntity
  8
LAY-1
  6
CONTINUOUS
 62
     2
100
AcDbCircle
 10
398.3192526843879
 20
336.35761287805
 30
0.0
 40
6.187318682742
100
AcDbArc
 50
3.349082178588038
 51
80.76076184290798
  0
ARC
  5
12B
330
1F
100
AcDbEntity
  8
LAY-1
  6
CONTINUOUS
 62
     2
100
AcDbCircle
 10
333.680747748793
 20
336.3576134064569
 30
0.0
 40
6.187318230749002
100
AcDbArc
 50
99.23924290202513
 51
176.6509224875051
  0
ARC
  5
12C
330
1F
100
AcDbEntity
  8
LAY-1
  6
CONTINUOUS
 62
     2
100
AcDbCircle
 10
326.0000004332051
 20
335.583668825985
 30
0.0
 40
1.0
100
AcDbArc
 50
95.00000000004233
 51
180.0
  0
LINE
  5
12D
330
1F
100
AcDbEntity
  8
LAY-1
  6
CONTINUOUS
 62
     2
100
AcDbLine
 10
325.912844690458
 20
336.579863524077
 30
0.0
 11
327.501289553035
 21
336.718834442188
 31
0.0
  0
LINE
  5
12E
330
1F
100
AcDbEntity
  8
LAY-1
  6
CONTINUOUS
 62
     2
100
AcDbLine
 10
325.0000004332052
 20
357.5000000000019
 30
0.0
 11
325.000000433213
 21
311.500000000003
 31
0.0
  0
LINE
  5
12F
330
1F
100
AcDbEntity
  8
LAY-1
  6
CONTINUOUS
 62
     2
100
AcDbLine
 10
311.0000004331839
 20
332.0000000000001
 30
0.0
 11
311.000000433184
 21
357.5
 31
0.0
  0
LINE
  5
130
330
1F
100
AcDbEntity
  8
LAY-1
  6
CONTINUOUS
 62
     2
100
AcDbLine
 10
312.0000004331841
 20
357.500000000002
 30
0.0
 11
312.0000004331839
 21
310.000000000002
 31
0.0
  0
ARC
  5
131
330
1F
100
AcDbEntity
  8
LAY-1
  6
CONTINUOUS
 62
     2
100
AcDbCircle
 10
311.0000004331839
 20
331.0000000000001
 30
0.0
 40
1.0
100
AcDbArc
 50
0.0
 51
90.00000000000001
  0
ARC
  5
132
330
1F
100
AcDbEntity
  8
LAY-1
  6
CONTINUOUS
 62
     2
100
AcDbCircle
 10
323.500000433213
 20
311.500000000003
 30
0.0
 40
1.5
100
AcDbArc
 50
270.0
 51
0.0
  0
LINE
  5
133
330
1F
100
AcDbEntity
  8
LAY-1
  6
CONTINUOUS
 62
     2
100
AcDbLine
 10
312.0000004331839
 20
310.000000000002
 30
0.0
 11
323.500000433213
 21
310.000000000003
 31
0.0
  0
LINE
  5
134
330
1F
100
AcDbEntity
  8
LAY-1
  6
CONTINUOUS
 62
     2
100
AcDbLine
 10
404.4960042827699
 20
353.283117448965
 30
0.0
 11
404.4960042827699
 21
336.7190712763388
 31
0.0
  0
LINE
  5
135
330
1F
100
AcDbEntity
  8
LAY-1
  6
CONTINUOUS
 62
     2
100
AcDbLine
 10
327.5039957172326
 20
353.2831174490813
 30
0.0
 11
327.5039957172321
 21
336.7190712763398
 31
0.0
  0
LINE
  5
136
330
1F
100
AcDbEntity
  8
LAY-1
  6
CONTINUOUS
 62
     2
100
AcDbLine
 10
332.687328903118
 20
342.464660637778
 30
0.0
 11
333.0834825005328
 21
342.5438913572613
 31
0.0
  0
LINE
  5
137
330
1F
100
AcDbEntity
  8
LAY-1
  6
CONTINUOUS
 62
     2
100
AcDbLine
 10
399.3126710968841
 20
342.464660637778
 30
0.0
 11
398.9165174995414
 21
342.5438913572468
 31
0.0
  0
ARC
  5
138
330
1F
100
AcDbEntity
  8
LAY-1
  6
CONTINUOUS
 62
     2
100
AcDbCircle
 10
420.9999995668179
 20
383.9999999999999
 30
0.0
 40
1.0
100
AcDbArc
 50
180.0
 51
270.0
  0
LINE
  5
139
330
1F
100
AcDbEntity
  8
LAY-1
  6
CONTINUOUS
 62
     2
100
AcDbLine
 10
420.9999995668179
 20
382.9999999999999
 30
0.0
 11
420.9999995668179
 21
357.5
 31
0.0
  0
LINE
  5
13A
330
1F
100
AcDbEntity
  8
LAY-1
  6
CONTINUOUS
 62
     2
100
AcDbLine
 10
420.0000004331843
 20
357.4999999999989
 30
0.0
 11
420.000000433184
 21
404.999999999998
 31
0.0
  0
LINE
  5
13B
330
1F
100
AcDbEntity
  8
LAY-1
  6
CONTINUOUS
 62
     2
100
AcDbLine
 10
420.000000433184
 20
404.999999999998
 30
0.0
 11
408.500000433184
 21
404.999999999998
 31
0.0
  0
ARC
  5
13C
330
1F
100
AcDbEntity
  8
LAY-1
  6
CONTINUOUS
 62
     2
100
AcDbCircle
 10
408.500000433184
 20
403.499999999998
 30
0.0
 40
1.5
100
AcDbArc
 50
90.00000000000001
 51
180.0
  0
LINE
  5
13D
330
1F
100
AcDbEntity
  8
LAY-1
  6
CONTINUOUS
 62
     2
100
AcDbLine
 10
407.000000433184
 20
403.499999999998
 30
0.0
 11
407.0000004331844
 21
357.4999999999986
 31
0.0
  0
LINE
  5
13E
330
1F
100
AcDbEntity
  8
LAY-1
  6
CONTINUOUS
 62
     2
100
AcDbLine
 10
325.0000004332052
 20
357.4999999999981
 30
0.0
 11
325.000000433213
 21
403.499999999997
 31
0.0
  0
ARC
  5
13F
330
1F
100
AcDbEntity
  8
LAY-1
  6
CONTINUOUS
 62
     2
100
AcDbCircle
 10
323.500000433213
 20
403.499999999997
 30
0.0
 40
1.5
100
AcDbArc
 50
0.0
 51
90.00000000000001
  0
LINE
  5
140
330
1F
100
AcDbEntity
  8
LAY-1
  6
CONTINUOUS
 62
     2
100
AcDbLine
 10
312.0000004331839
 20
404.9999999999981
 30
0.0
 11
323.500000433213
 21
404.999999999997
 31
0.0
  0
LINE
  5
141
330
1F
100
AcDbEntity
  8
LAY-1
  6
CONTINUOUS
 62
     2
100
AcDbLine
 10
312.0000004331841
 20
357.499999999998
 30
0.0
 11
312.0000004331839
 21
404.9999999999981
 31
0.0
  0
LINE
  5
142
330
1F
100
AcDbEntity
  8
LAY-1
  6
CONTINUOUS
 62
     2
100
AcDbLine
 10
311.0000004331839
 20
382.9999999999999
 30
0.0
 11
311.000000433184
 21
357.5
 31
0.0
  0
ARC
  5
143
330
1F
100
AcDbEntity
  8
LAY-1
  6
CONTINUOUS
 62
     2
100
AcDbCircle
 10
311.0000004331839
 20
383.9999999999999
 30
0.0
 40
1.0
100
AcDbArc
 50
270.0
 51
0.0
  0
ARC
  5
144
330
1F
100
AcDbEntity
  8
LAY-1
  6
CONTINUOUS
 62
     2
100
AcDbCircle
 10
326.0000004332051
 20
379.416331174015
 30
0.0
 40
1.0
100
AcDbArc
 50
180.0
 51
264.9999999999546
  0
LINE
  5
145
330
1F
100
AcDbEntity
  8
LAY-1
  6
CONTINUOUS
 62
     2
100
AcDbLine
 10
325.912844690458
 20
378.420136475923
 30
0.0
 11
327.501289553035
 21
378.281165557812
 31
0.0
  0
ARC
  5
146
330
1F
100
AcDbEntity
  8
LAY-1
  6
CONTINUOUS
 62
     2
100
AcDbCircle
 10
333.680747748793
 20
378.6423865935431
 30
0.0
 40
6.187318230749002
100
AcDbArc
 50
183.3490775124945
 51
260.7607570979754
  0
LINE
  5
147
330
1F
100
AcDbEntity
  8
LAY-1
  6
CONTINUOUS
 62
     2
100
AcDbLine
 10
327.5039957172326
 20
361.7168825509187
 30
0.0
 11
327.5039957172321
 21
378.2809287236602
 31
0.0
  0
LINE
  5
148
330
1F
100
AcDbEntity
  8
LAY-1
  6
CONTINUOUS
 62
     2
100
AcDbLine
 10
404.4960042827499
 20
378.2809287233219
 30
0.0
 11
406.0871561759291
 21
378.420136475923
 31
0.0
  0
ARC
  5
149
330
1F
100
AcDbEntity
  8
LAY-1
  6
CONTINUOUS
 62
     2
100
AcDbCircle
 10
406.000000433181
 20
379.416331174015
 30
0.0
 40
1.0
100
AcDbArc
 50
275.000000000039
 51
0.0
  0
ARC
  5
14A
330
1F
100
AcDbEntity
  8
LAY-1
  6
CONTINUOUS
 62
     2
100
AcDbCircle
 10
398.3192526843879
 20
378.64238712195
 30
0.0
 40
6.187318682742
100
AcDbArc
 50
279.2392381570921
 51
356.6509178214121
  0
LINE
  5
14B
330
1F
100
AcDbEntity
  8
LAY-1
  6
CONTINUOUS
 62
     2
100
AcDbLine
 10
399.3126710968841
 20
372.535339362222
 30
0.0
 11
398.9165174995414
 21
372.4561086427532
 31
0.0
  0
LINE
  5
14C
330
1F
100
AcDbEntity
  8
LAY-1
  6
CONTINUOUS
 62
     2
100
AcDbLine
 10
404.4960042827699
 20
361.716882551035
 30
0.0
 11
404.4960042827699
 21
378.2809287236612
 31
0.0
  0
POLYLINE
  5
14D
330
1F
100
AcDbEntity
  8
LAY-1
  6
CONTINUOUS
 62
     2
100
AcDb2dPolyline
 66
     1
 10
0.0
 20
0.0
 30
0.0
 70
   128
  0
VERTEX
  5
14E
330
14D
100
AcDbEntity
  8
LAY-1
  6
CONTINUOUS
 62
     2
100
AcDbVertex
100
AcDb2dVertex
 10
371.7735026919401
 20
357.5
 30
0.0
  0
VERTEX
  5
14F
330
14D
100
AcDbEntity
  8
LAY-1
  6
CONTINUOUS
 62
     2
100
AcDbVertex
100
AcDb2dVertex
 10
368.8867513459901
 20
362.5000000000033
 30
0.0
  0
VERTEX
  5
150
330
14D
100
AcDbEntity
  8
LAY-1
  6
CONTINUOUS
 62
     2
100
AcDbVertex
100
AcDb2dVertex
 10
363.1132486540901
 20
362.5000000000033
 30
0.0
  0
VERTEX
  5
151
330
14D
100
AcDbEntity
  8
LAY-1
  6
CONTINUOUS
 62
     2
100
AcDbVertex
100
AcDb2dVertex
 10
360.22649730814
 20
357.5
 30
0.0
  0
VERTEX
  5
152
330
14D
100
AcDbEntity
  8
LAY-1
  6
CONTINUOUS
 62
     2
100
AcDbVertex
100
AcDb2dVertex
 10
363.1132486540899
 20
352.4999999999967
 30
0.0
  0
VERTEX
  5
153
330
14D
100
AcDbEntity
  8
LAY-1
  6
CONTINUOUS
 62
     2
100
AcDbVertex
100
AcDb2dVertex
 10
368.88675134599
 20
352.4999999999967
 30
0.0
  0
VERTEX
  5
154
330
14D
100
AcDbEntity
  8
LAY-1
  6
CONTINUOUS
 62
     2
100
AcDbVertex
100
AcDb2dVertex
 10
371.7735026919401
 20
357.5
 30
0.0
  0
SEQEND
  5
155
330
14D
100
AcDbEntity
  8
LAY-1
  6
CONTINUOUS
 62
     2
  0
CIRCLE
  5
156
330
1F
100
AcDbEntity
  8
LAY-1
  6
CONTINUOUS
 62
     2
100
AcDbCircle
 10
366.00000000004
 20
357.5
 30
0.0
 40
5.000000000002104
  0
CIRCLE
  5
157
330
1F
100
AcDbEntity
  8
LAY-1
  6
CONTINUOUS
 62
     2
100
AcDbCircle
 10
366.00000000004
 20
357.5
 30
0.0
 40
6.100000000002524
  0
ARC
  5
158
330
1F
100
AcDbEntity
  8
LAY-1
  6
CONTINUOUS
 62
     2
100
AcDbCircle
 10
366.00000000004
 20
357.5
 30
0.0
 40
16.0
100
AcDbArc
 50
20.57685657575547
 51
69.42314342424454
  0
POLYLINE
  5
159
330
1F
100
AcDbEntity
  8
LAY-1
  6
CONTINUOUS
 62
     2
100
AcDb2dPolyline
 66
     1
 10
0.0
 20
0.0
 30
0.0
 70
   128
  0
VERTEX
  5
15A
330
159
100
AcDbEntity
  8
LAY-1
  6
CONTINUOUS
 62
     2
100
AcDbVertex
100
AcDb2dVertex
 10
381.2365438365076
 20
363.1095319434876
 30
0.0
  0
VERTEX
  5
15B
330
159
100
AcDbEntity
  8
LAY-1
  6
CONTINUOUS
 62
     2
100
AcDbVertex
100
AcDb2dVertex
 10
375.237604307074
 20
373.5
 30
0.0
  0
VERTEX
  5
15C
330
159
100
AcDbEntity
  8
LAY-1
  6
CONTINUOUS
 62
     2
100
AcDbVertex
100
AcDb2dVertex
 10
371.5683375210044
 20
373.5
 30
0.0
  0
SEQEND
  5
15D
330
159
100
AcDbEntity
  8
LAY-1
  6
CONTINUOUS
 62
     2
  0
ARC
  5
15E
330
1F
100
AcDbEntity
  8
LAY-1
  6
CONTINUOUS
 62
     2
100
AcDbCircle
 10
366.00000000004
 20
357.5
 30
0.0
 40
16.0
100
AcDbArc
 50
110.5768565757559
 51
159.4231434242442
  0
POLYLINE
  5
15F
330
1F
100
AcDbEntity
  8
LAY-1
  6
CONTINUOUS
 62
     2
100
AcDb2dPolyline
 66
     1
 10
0.0
 20
0.0
 30
0.0
 70
   128
  0
VERTEX
  5
160
330
15F
100
AcDbEntity
  8
LAY-1
  6
CONTINUOUS
 62
     2
100
AcDbVertex
100
AcDb2dVertex
 10
360.4316624790755
 20
373.5
 30
0.0
  0
VERTEX
  5
161
330
15F
100
AcDbEntity
  8
LAY-1
  6
CONTINUOUS
 62
     2
100
AcDbVertex
100
AcDb2dVertex
 10
356.7623956930061
 20
373.5
 30
0.0
  0
VERTEX
  5
162
330
15F
100
AcDbEntity
  8
LAY-1
  6
CONTINUOUS
 62
     2
100
AcDbVertex
100
AcDb2dVertex
 10
350.7634561635724
 20
363.1095319434876
 30
0.0
  0
SEQEND
  5
163
330
15F
100
AcDbEntity
  8
LAY-1
  6
CONTINUOUS
 62
     2
  0
ARC
  5
164
330
1F
100
AcDbEntity
  8
LAY-1
  6
CONTINUOUS
 62
     2
100
AcDbCircle
 10
366.00000000004
 20
357.5
 30
0.0
 40
16.0
100
AcDbArc
 50
200.5768565757554
 51
249.4231434242442
  0
POLYLINE
  5
165
330
1F
100
AcDbEntity
  8
LAY-1
  6
CONTINUOUS
 62
     2
100
AcDb2dPolyline
 66
     1
 10
0.0
 20
0.0
 30
0.0
 70
   128
  0
VERTEX
  5
166
330
165
100
AcDbEntity
  8
LAY-1
  6
CONTINUOUS
 62
     2
100
AcDbVertex
100
AcDb2dVertex
 10
350.7634561635723
 20
351.8904680565124
 30
0.0
  0
VERTEX
  5
167
330
165
100
AcDbEntity
  8
LAY-1
  6
CONTINUOUS
 62
     2
100
AcDbVertex
100
AcDb2dVertex
 10
356.7623956930059
 20
341.5
 30
0.0
  0
VERTEX
  5
168
330
165
100
AcDbEntity
  8
LAY-1
  6
CONTINUOUS
 62
     2
100
AcDbVertex
100
AcDb2dVertex
 10
360.4316624790756
 20
341.5
 30
0.0
  0
SEQEND
  5
169
330
165
100
AcDbEntity
  8
LAY-1
  6
CONTINUOUS
 62
     2
  0
POLYLINE
  5
16A
330
1F
100
AcDbEntity
  8
LAY-1
  6
CONTINUOUS
 62
     2
100
AcDb2dPolyline
 66
     1
 10
0.0
 20
0.0
 30
0.0
 70
   128
  0
VERTEX
  5
16B
330
16A
100
AcDbEntity
  8
LAY-1
  6
CONTINUOUS
 62
     2
100
AcDbVertex
100
AcDb2dVertex
 10
371.5683375210044
 20
341.5
 30
0.0
  0
VERTEX
  5
16C
330
16A
100
AcDbEntity
  8
LAY-1
  6
CONTINUOUS
 62
     2
100
AcDbVertex
100
AcDb2dVertex
 10
375.237604307074
 20
341.5
 30
0.0
  0
VERTEX
  5
16D
330
16A
100
AcDbEntity
  8
LAY-1
  6
CONTINUOUS
 62
     2
100
AcDbVertex
100
AcDb2dVertex
 10
381.2365438365076
 20
351.8904680565124
 30
0.0
  0
SEQEND
  5
16E
330
16A
100
AcDbEntity
  8
LAY-1
  6
CONTINUOUS
 62
     2
  0
ARC
  5
16F
330
1F
100
AcDbEntity
  8
LAY-1
  6
CONTINUOUS
 62
     2
100
AcDbCircle
 10
366.00000000004
 20
357.5
 30
0.0
 40
16.0
100
AcDbArc
 50
290.5768565757554
 51
339.4231434242445
  0
ARC
  5
170
330
1F
100
AcDbEntity
  8
LAY-1
  6
CONTINUOUS
 62
     2
100
AcDbCircle
 10
366.0000000000409
 20
377.500000000003
 30
0.0
 40
45.5
100
AcDbArc
 50
253.083685304826
 51
263.0013977631202
  0
ARC
  5
171
330
1F
100
AcDbEntity
  8
LAY-1
  6
CONTINUOUS
 62
     2
100
AcDbCircle
 10
366.0000000000409
 20
377.500000000003
 30
0.0
 40
45.5
100
AcDbArc
 50
276.9986022368777
 51
286.9163146951687
  0
LINE
  5
172
330
1F
100
AcDbEntity
  8
LAY-1
  6
CONTINUOUS
 62
     2
100
AcDbLine
 10
371.1447463106682
 20
333.6495848092694
 30
0.0
 11
371.9524419249897
 21
348.6186062748541
 31
0.0
  0
ARC
  5
173
330
1F
100
AcDbEntity
  8
LAY-1
  6
CONTINUOUS
 62
     2
100
AcDbCircle
 10
366.0000000000409
 20
337.499999999997
 30
0.0
 40
45.5
100
AcDbArc
 50
73.0836853048313
 51
83.00139776312227
  0
ARC
  5
174
330
1F
100
AcDbEntity
  8
LAY-1
  6
CONTINUOUS
 62
     2
100
AcDbCircle
 10
366.0000000000409
 20
337.499999999997
 30
0.0
 40
45.5
100
AcDbArc
 50
96.9986022368799
 51
106.916314695174
  0
ARC
  5
175
330
1F
100
AcDbEntity
  8
LAY-1
  6
CONTINUOUS
 62
     2
100
AcDbCircle
 10
366.00000000004
 20
357.5
 30
0.0
 40
19.00000000006425
100
AcDbArc
 50
106.6675361440628
 51
163.3324638559372
  0
POLYLINE
  5
176
330
1F
100
AcDbEntity
  8
LAY-1
  6
CONTINUOUS
 62
     2
100
AcDb2dPolyline
 66
     1
 10
0.0
 20
0.0
 30
0.0
 70
   128
  0
VERTEX
  5
177
330
176
100
AcDbEntity
  8
LAY-1
  6
CONTINUOUS
 62
     2
100
AcDbVertex
100
AcDb2dVertex
 10
360.5935359087174
 20
376.5000000000642
 30
0.0
  0
VERTEX
  5
178
330
176
100
AcDbEntity
  8
LAY-1
  6
CONTINUOUS
 62
     2
100
AcDbVertex
100
AcDb2dVertex
 10
355.0303448854
 20
376.5000000000642
 30
0.0
  0
VERTEX
  5
179
330
176
100
AcDbEntity
  8
LAY-1
  6
CONTINUOUS
 62
     2
100
AcDbVertex
100
AcDb2dVertex
 10
347.1879689835473
 20
362.9166064860015
 30
0.0
  0
SEQEND
  5
17A
330
176
100
AcDbEntity
  8
LAY-1
  6
CONTINUOUS
 62
     2
  0
ARC
  5
17B
330
1F
100
AcDbEntity
  8
LAY-1
  6
CONTINUOUS
 62
     2
100
AcDbCircle
 10
366.00000000004
 20
357.5
 30
0.0
 40
19.00000000006425
100
AcDbArc
 50
196.6675361440625
 51
253.3324638559372
  0
POLYLINE
  5
17C
330
1F
100
AcDbEntity
  8
LAY-1
  6
CONTINUOUS
 62
     2
100
AcDb2dPolyline
 66
     1
 10
0.0
 20
0.0
 30
0.0
 70
   128
  0
VERTEX
  5
17D
330
17C
100
AcDbEntity
  8
LAY-1
  6
CONTINUOUS
 62
     2
100
AcDbVertex
100
AcDb2dVertex
 10
347.1879689835472
 20
352.0833935139987
 30
0.0
  0
VERTEX
  5
17E
330
17C
100
AcDbEntity
  8
LAY-1
  6
CONTINUOUS
 62
     2
100
AcDbVertex
100
AcDb2dVertex
 10
355.0303448854
 20
338.4999999999358
 30
0.0
  0
VERTEX
  5
17F
330
17C
100
AcDbEntity
  8
LAY-1
  6
CONTINUOUS
 62
     2
100
AcDbVertex
100
AcDb2dVertex
 10
360.5935359087174
 20
338.4999999999358
 30
0.0
  0
SEQEND
  5
180
330
17C
100
AcDbEntity
  8
LAY-1
  6
CONTINUOUS
 62
     2
  0
ARC
  5
181
330
1F
100
AcDbEntity
  8
LAY-1
  6
CONTINUOUS
 62
     2
100
AcDbCircle
 10
366.00000000004
 20
357.5
 30
0.0
 40
19.00000000006425
100
AcDbArc
 50
286.6675361440625
 51
343.3324638559372
  0
POLYLINE
  5
182
330
1F
100
AcDbEntity
  8
LAY-1
  6
CONTINUOUS
 62
     2
100
AcDb2dPolyline
 66
     1
 10
0.0
 20
0.0
 30
0.0
 70
   128
  0
VERTEX
  5
183
330
182
100
AcDbEntity
  8
LAY-1
  6
CONTINUOUS
 62
     2
100
AcDbVertex
100
AcDb2dVertex
 10
371.4064640913626
 20
338.4999999999358
 30
0.0
  0
VERTEX
  5
184
330
182
100
AcDbEntity
  8
LAY-1
  6
CONTINUOUS
 62
     2
100
AcDbVertex
100
AcDb2dVertex
 10
376.96965511468
 20
338.4999999999358
 30
0.0
  0
VERTEX
  5
185
330
182
100
AcDbEntity
  8
LAY-1
  6
CONTINUOUS
 62
     2
100
AcDbVertex
100
AcDb2dVertex
 10
384.8120310165328
 20
352.0833935139987
 30
0.0
  0
SEQEND
  5
186
330
182
100
AcDbEntity
  8
LAY-1
  6
CONTINUOUS
 62
     2
  0
POLYLINE
  5
187
330
1F
100
AcDbEntity
  8
LAY-1
  6
CONTINUOUS
 62
     2
100
AcDb2dPolyline
 66
     1
 10
0.0
 20
0.0
 30
0.0
 70
   128
  0
VERTEX
  5
188
330
187
100
AcDbEntity
  8
LAY-1
  6
CONTINUOUS
 62
     2
100
AcDbVertex
100
AcDb2dVertex
 10
384.8120310165328
 20
362.9166064860013
 30
0.0
  0
VERTEX
  5
189
330
187
100
AcDbEntity
  8
LAY-1
  6
CONTINUOUS
 62
     2
100
AcDbVertex
100
AcDb2dVertex
 10
376.96965511468
 20
376.5000000000642
 30
0.0
  0
VERTEX
  5
18A
330
187
100
AcDbEntity
  8
LAY-1
  6
CONTINUOUS
 62
     2
100
AcDbVertex
100
AcDb2dVertex
 10
371.4064640913625
 20
376.5000000000642
 30
0.0
  0
SEQEND
  5
18B
330
187
100
AcDbEntity
  8
LAY-1
  6
CONTINUOUS
 62
     2
  0
ARC
  5
18C
330
1F
100
AcDbEntity
  8
LAY-1
  6
CONTINUOUS
 62
     2
100
AcDbCircle
 10
366.00000000004
 20
357.5
 30
0.0
 40
19.00000000006425
100
AcDbArc
 50
16.66753614406276
 51
73.3324638559375
  0
ARC
  5
18D
330
1F
100
AcDbEntity
  8
LAY-1
  6
CONTINUOUS
 62
     2
100
AcDbCircle
 10
366.00000000004
 20
357.5
 30
0.0
 40
22.49999999995998
100
AcDbArc
 50
103.49637943518
 51
166.50362056482
  0
LINE
  5
18E
330
1F
100
AcDbEntity
  8
LAY-1
  6
EXLTYPE2
 62
     1
100
AcDbLine
 10
428.1
 20
357.5
 30
0.0
 11
301.7
 21
357.5
 31
0.0
  0
ARC
  5
18F
330
1F
100
AcDbEntity
  8
LAY-1
  6
CONTINUOUS
 62
     2
100
AcDbCircle
 10
366.00000000004
 20
357.5
 30
0.0
 40
22.49999999995998
100
AcDbArc
 50
193.4963794351794
 51
256.50362056482
  0
ARC
  5
190
330
1F
100
AcDbEntity
  8
LAY-1
  6
CONTINUOUS
 62
     2
100
AcDbCircle
 10
366.00000000004
 20
357.5
 30
0.0
 40
22.49999999995998
100
AcDbArc
 50
283.4963794351797
 51
346.5036205648203
  0
ARC
  5
191
330
1F
100
AcDbEntity
  8
LAY-1
  6
CONTINUOUS
 62
     2
100
AcDbCircle
 10
366.00000000004
 20
357.5
 30
0.0
 40
22.49999999995998
100
AcDbArc
 50
13.49637943517968
 51
76.50362056482064
  0
LINE
  5
192
330
1F
100
AcDbEntity
  8
LAY-1
  6
EXLTYPE3
 62
     1
100
AcDbLine
 10
420.000000433182
 20
510.500000000002
 30
0.0
 11
407.000000433175
 21
510.500000000004
 31
0.0
  0
LINE
  5
193
330
1F
100
AcDbEntity
  8
LAY-1
  6
EXLTYPE2
 62
     1
100
AcDbLine
 10
305.655420988404
 20
587.999999999998
 30
0.0
 11
331.6227296821151
 21
587.999999999998
 31
0.0
  0
LINE
  5
194
330
1F
100
AcDbEntity
  8
LAY-1
  6
EXLTYPE2
 62
     1
100
AcDbLine
 10
331.622729682108
 20
517.999999999998
 30
0.0
 11
306.151611600385
 21
518.000000000003
 31
0.0
  0
LINE
  5
195
330
1F
100
AcDbEntity
  8
LAY-1
  6
EXLTYPE3
 62
     1
100
AcDbLine
 10
407.000000433176
 20
525.500000000002
 30
0.0
 11
420.000000433184
 21
525.500000000002
 31
0.0
  0
LINE
  5
196
330
1F
100
AcDbEntity
  8
LAY-1
  6
EXLTYPE2
 62
     1
100
AcDbLine
 10
400.924018488899
 20
518.000000000003
 30
0.0
 11
426.2297396999691
 21
518.000000000003
 31
0.0
  0
LINE
  5
197
330
1F
100
AcDbEntity
  8
LAY-1
  6
EXLTYPE3
 62
     1
100
AcDbLine
 10
407.000000433182
 20
580.500000000001
 30
0.0
 11
420.000000433184
 21
580.500000000001
 31
0.0
  0
LINE
  5
198
330
1F
100
AcDbEntity
  8
LAY-1
  6
EXLTYPE2
 62
     1
100
AcDbLine
 10
426.229739699991
 20
587.999999999998
 30
0.0
 11
399.766240394275
 21
588.000000000003
 31
0.0
  0
LINE
  5
199
330
1F
100
AcDbEntity
  8
LAY-1
  6
EXLTYPE3
 62
     1
100
AcDbLine
 10
420.000000433189
 20
595.499999999998
 30
0.0
 11
407.000000433183
 21
595.5
 31
0.0
  0
LINE
  5
19A
330
1F
100
AcDbEntity
  8
LAY-1
  6
EXLTYPE3
 62
     1
100
AcDbLine
 10
312.0000004331839
 20
595.4999999999981
 30
0.0
 11
325.000000433212
 21
595.499999999998
 31
0.0
  0
LINE
  5
19B
330
1F
100
AcDbEntity
  8
LAY-1
  6
EXLTYPE3
 62
     1
100
AcDbLine
 10
325.0000004332101
 20
580.499999999998
 30
0.0
 11
312.0000004331839
 21
580.499999999998
 31
0.0
  0
LINE
  5
19C
330
1F
100
AcDbEntity
  8
LAY-1
  6
EXLTYPE3
 62
     1
100
AcDbLine
 10
325.000000433191
 20
525.500000000002
 30
0.0
 11
312.0000004331839
 21
525.500000000002
 31
0.0
  0
LINE
  5
19D
330
1F
100
AcDbEntity
  8
LAY-1
  6
EXLTYPE3
 62
     1
100
AcDbLine
 10
312.0000004331839
 20
510.500000000002
 30
0.0
 11
325.000000433186
 21
510.500000000002
 31
0.0
  0
LINE
  5
19E
330
1F
100
AcDbEntity
  8
LAY-1
  6
CONTINUOUS
 62
     2
100
AcDbLine
 10
404.4960042827699
 20
532.21907127667
 30
0.0
 11
404.4960042827699
 21
573.7809287236612
 31
0.0
  0
LINE
  5
19F
330
1F
100
AcDbEntity
  8
LAY-1
  6
CONTINUOUS
 62
     2
100
AcDbLine
 10
327.5039957172332
 20
532.219071276669
 30
0.0
 11
327.5039957172321
 21
573.7809287236602
 31
0.0
  0
LINE
  5
1A0
330
1F
100
AcDbEntity
  8
LAY-1
  6
CONTINUOUS
 62
     2
100
AcDbLine
 10
399.3126710968841
 20
568.035339362222
 30
0.0
 11
398.626775990812
 21
567.898160341007
 31
0.0
  0
LINE
  5
1A1
330
1F
100
AcDbEntity
  8
LAY-1
  6
CONTINUOUS
 62
     2
100
AcDbLine
 10
420.000000433184
 20
505.499999999998
 30
0.0
 11
408.500000433174
 21
505.499999999998
 31
0.0
  0
ARC
  5
1A2
330
1F
100
AcDbEntity
  8
LAY-1
  6
CONTINUOUS
 62
     2
100
AcDbCircle
 10
406.000000433181
 20
574.916331174015
 30
0.0
 40
1.0
100
AcDbArc
 50
275.000000000039
 51
0.0
  0
LINE
  5
1A3
330
1F
100
AcDbEntity
  8
LAY-1
  6
CONTINUOUS
 62
     2
100
AcDbLine
 10
332.687328903118
 20
568.035339362222
 30
0.0
 11
333.3732240091899
 21
567.898160341007
 31
0.0
  0
ARC
  5
1A4
330
1F
100
AcDbEntity
  8
LAY-1
  6
CONTINUOUS
 62
     2
100
AcDbCircle
 10
333.680747748793
 20
574.142386593543
 30
0.0
 40
6.187318230749002
100
AcDbArc
 50
183.3490775124955
 51
260.7607570979754
  0
ARC
  5
1A5
330
1F
100
AcDbEntity
  8
LAY-1
  6
CONTINUOUS
 62
     2
100
AcDbCircle
 10
334.549920820019
 20
573.781644395153
 30
0.0
 40
6.000000000000004
100
AcDbArc
 50
258.6900675257997
 51
307.6387707924004
  0
ARC
  5
1A6
330
1F
100
AcDbEntity
  8
LAY-1
  6
CONTINUOUS
 62
     2
100
AcDbCircle
 10
397.450079179982
 20
573.781644395153
 30
0.0
 40
6.000000000000004
100
AcDbArc
 50
232.3612292075997
 51
281.3099324742004
  0
ARC
  5
1A7
330
1F
100
AcDbEntity
  8
LAY-1
  6
CONTINUOUS
 62
     2
100
AcDbCircle
 10
398.3192526843879
 20
574.14238712195
 30
0.0
 40
6.187318682742
100
AcDbArc
 50
279.2392381570919
 51
356.6509178214121
  0
ARC
  5
1A8
330
1F
100
AcDbEntity
  8
LAY-1
  6
CONTINUOUS
 62
     2
100
AcDbCircle
 10
398.3192526844
 20
531.857612878106
 30
0.0
 40
6.187318682742
100
AcDbArc
 50
3.349082177878315
 51
80.76076184327817
  0
LINE
  5
1A9
330
1F
100
AcDbEntity
  8
LAY-1
  6
CONTINUOUS
 62
     2
100
AcDbLine
 10
332.687328903118
 20
537.964660637833
 30
0.0
 11
333.373224009129
 21
538.101839659035
 31
0.0
  0
ARC
  5
1AA
330
1F
100
AcDbEntity
  8
LAY-1
  6
CONTINUOUS
 62
     2
100
AcDbCircle
 10
326.0000004332051
 20
574.916331174015
 30
0.0
 40
1.0
100
AcDbArc
 50
180.0
 51
264.9999999999546
  0
LINE
  5
1AB
330
1F
100
AcDbEntity
  8
LAY-1
  6
CONTINUOUS
 62
     2
100
AcDbLine
 10
404.4960042827649
 20
532.219071276675
 30
0.0
 11
406.087156175925
 21
532.079863524076
 31
0.0
  0
ARC
  5
1AC
330
1F
100
AcDbEntity
  8
LAY-1
  6
CONTINUOUS
 62
     2
100
AcDbCircle
 10
323.500000433213
 20
598.999999999997
 30
0.0
 40
1.5
100
AcDbArc
 50
0.0
 51
90.00000000000001
  0
LINE
  5
1AD
330
1F
100
AcDbEntity
  8
LAY-1
  6
CONTINUOUS
 62
     2
100
AcDbLine
 10
312.0000004331839
 20
505.499999999998
 30
0.0
 11
323.5000004331839
 21
505.499999999998
 31
0.0
  0
ARC
  5
1AE
330
1F
100
AcDbEntity
  8
LAY-1
  6
CONTINUOUS
 62
     2
100
AcDbCircle
 10
397.450079180044
 20
532.21835560489
 30
0.0
 40
6.000000000000004
100
AcDbArc
 50
78.69006752615948
 51
127.6387707923989
  0
ARC
  5
1AF
330
1F
100
AcDbEntity
  8
LAY-1
  6
CONTINUOUS
 62
     2
100
AcDbCircle
 10
333.680747748792
 20
531.857613406509
 30
0.0
 40
6.187318230748002
100
AcDbArc
 50
99.23924290201556
 51
176.6509224878551
  0
ARC
  5
1B0
330
1F
100
AcDbEntity
  8
LAY-1
  6
CONTINUOUS
 62
     2
100
AcDbCircle
 10
334.5499208199581
 20
532.21835560489
 30
0.0
 40
6.000000000000004
100
AcDbArc
 50
52.36122920759964
 51
101.3099324742003
  0
LINE
  5
1B1
330
1F
100
AcDbEntity
  8
LAY-1
  6
CONTINUOUS
 62
     2
100
AcDbLine
 10
312.0000004331839
 20
600.4999999999981
 30
0.0
 11
323.500000433213
 21
600.499999999997
 31
0.0
  0
ARC
  5
1B2
330
1F
100
AcDbEntity
  8
LAY-1
  6
CONTINUOUS
 62
     2
100
AcDbCircle
 10
406.000000433177
 20
531.083668825984
 30
0.0
 40
1.0
100
AcDbArc
 50
0.0
 51
84.99999999996103
  0
LINE
  5
1B3
330
1F
100
AcDbEntity
  8
LAY-1
  6
CONTINUOUS
 62
     2
100
AcDbLine
 10
399.3126710968841
 20
537.964660637833
 30
0.0
 11
398.6267759908731
 21
538.101839659035
 31
0.0
  0
LINE
  5
1B4
330
1F
100
AcDbEntity
  8
LAY-1
  6
CONTINUOUS
 62
     2
100
AcDbLine
 10
420.000000433184
 20
600.499999999998
 30
0.0
 11
408.500000433184
 21
600.499999999998
 31
0.0
  0
ARC
  5
1B5
330
1F
100
AcDbEntity
  8
LAY-1
  6
CONTINUOUS
 62
     2
100
AcDbCircle
 10
326.000000433192
 20
531.083668825984
 30
0.0
 40
1.0
100
AcDbArc
 50
95.00000000003897
 51
180.0
  0
ARC
  5
1B6
330
1F
100
AcDbEntity
  8
LAY-1
  6
CONTINUOUS
 62
     2
100
AcDbCircle
 10
323.5000004331839
 20
506.999999999998
 30
0.0
 40
1.5
100
AcDbArc
 50
270.0
 51
0.0
  0
ARC
  5
1B7
330
1F
100
AcDbEntity
  8
LAY-1
  6
CONTINUOUS
 62
     2
100
AcDbCircle
 10
366.0000000000009
 20
532.999999999997
 30
0.0
 40
45.5
100
AcDbArc
 50
52.36122920759969
 51
127.6387707923999
  0
ARC
  5
1B8
330
1F
100
AcDbEntity
  8
LAY-1
  6
CONTINUOUS
 62
     2
100
AcDbCircle
 10
408.500000433174
 20
506.999999999998
 30
0.0
 40
1.5
100
AcDbArc
 50
180.0
 51
270.0
  0
ARC
  5
1B9
330
1F
100
AcDbEntity
  8
LAY-1
  6
CONTINUOUS
 62
     2
100
AcDbCircle
 10
408.500000433184
 20
598.999999999998
 30
0.0
 40
1.5
100
AcDbArc
 50
90.00000000000001
 51
180.0
  0
LINE
  5
1BA
330
1F
100
AcDbEntity
  8
LAY-1
  6
CONTINUOUS
 62
     2
100
AcDbLine
 10
325.912844690458
 20
573.920136475923
 30
0.0
 11
327.501289553035
 21
573.781165557812
 31
0.0
  0
LINE
  5
1BB
330
1F
100
AcDbEntity
  8
LAY-1
  6
CONTINUOUS
 62
     2
100
AcDbLine
 10
404.4960042827499
 20
573.780928723322
 30
0.0
 11
406.0871561759291
 21
573.920136475923
 31
0.0
  0
LINE
  5
1BC
330
1F
100
AcDbEntity
  8
LAY-1
  6
CONTINUOUS
 62
     2
100
AcDbLine
 10
325.912844690444
 20
532.079863524076
 30
0.0
 11
327.503996572214
 21
532.219071275679
 31
0.0
  0
ARC
  5
1BD
330
1F
100
AcDbEntity
  8
LAY-1
  6
CONTINUOUS
 62
     2
100
AcDbCircle
 10
311.0000004331839
 20
526.4999999999981
 30
0.0
 40
1.0
100
AcDbArc
 50
0.0
 51
90.00000000000001
  0
LINE
  5
1BE
330
1F
100
AcDbEntity
  8
LAY-1
  6
CONTINUOUS
 62
     2
100
AcDbLine
 10
311.0000004331839
 20
527.4999999999981
 30
0.0
 11
311.000000433184
 21
552.9999999999981
 31
0.0
  0
LINE
  5
1BF
330
1F
100
AcDbEntity
  8
LAY-1
  6
CONTINUOUS
 62
     2
100
AcDbLine
 10
311.0000004331839
 20
578.4999999999999
 30
0.0
 11
311.000000433184
 21
553.0
 31
0.0
  0
ARC
  5
1C0
330
1F
100
AcDbEntity
  8
LAY-1
  6
CONTINUOUS
 62
     2
100
AcDbCircle
 10
311.0000004331839
 20
579.4999999999999
 30
0.0
 40
1.0
100
AcDbArc
 50
270.0
 51
0.0
  0
ARC
  5
1C1
330
1F
100
AcDbEntity
  8
LAY-1
  6
CONTINUOUS
 62
     2
100
AcDbCircle
 10
420.9999995668179
 20
526.4999999999981
 30
0.0
 40
1.0
100
AcDbArc
 50
90.00000000000001
 51
180.0
  0
LINE
  5
1C2
330
1F
100
AcDbEntity
  8
LAY-1
  6
CONTINUOUS
 62
     2
100
AcDbLine
 10
420.9999995668179
 20
527.4999999999981
 30
0.0
 11
420.9999995668179
 21
552.999999999998
 31
0.0
  0
LINE
  5
1C3
330
1F
100
AcDbEntity
  8
LAY-1
  6
CONTINUOUS
 62
     2
100
AcDbLine
 10
420.9999995668179
 20
578.4999999999999
 30
0.0
 11
420.9999995668179
 21
553.0
 31
0.0
  0
ARC
  5
1C4
330
1F
100
AcDbEntity
  8
LAY-1
  6
CONTINUOUS
 62
     2
100
AcDbCircle
 10
420.9999995668179
 20
579.4999999999999
 30
0.0
 40
1.0
100
AcDbArc
 50
180.0
 51
270.0
  0
ARC
  5
1C5
330
1F
100
AcDbEntity
  8
LAY-1
  6
CONTINUOUS
 62
     2
100
AcDbCircle
 10
387.0000000000008
 20
518.5000000000009
 30
0.0
 40
1.5
100
AcDbArc
 50
0.0
 51
48.18968510424499
  0
ARC
  5
1C6
330
1F
100
AcDbEntity
  8
LAY-1
  6
CONTINUOUS
 62
     2
100
AcDbCircle
 10
389.0
 20
520.7360679775014
 30
0.0
 40
1.5
100
AcDbArc
 50
180.0
 51
228.1896851042421
  0
LINE
  5
1C7
330
1F
100
AcDbEntity
  8
LAY-1
  6
CONTINUOUS
 62
     2
100
AcDbLine
 10
366.0000000000009
 20
507.999999999998
 30
0.0
 11
387.0000000000009
 21
507.9999999999969
 31
0.0
  0
LINE
  5
1C8
330
1F
100
AcDbEntity
  8
LAY-1
  6
CONTINUOUS
 62
     2
100
AcDbLine
 10
388.5000000000009
 20
509.4999999999969
 30
0.0
 11
388.5000000000008
 21
518.5000000000009
 31
0.0
  0
ARC
  5
1C9
330
1F
100
AcDbEntity
  8
LAY-1
  6
CONTINUOUS
 62
     2
100
AcDbCircle
 10
387.0000000000009
 20
509.4999999999969
 30
0.0
 40
1.5
100
AcDbArc
 50
270.0
 51
0.0
  0
LINE
  5
1CA
330
1F
100
AcDbEntity
  8
LAY-1
  6
CONTINUOUS
 62
     2
100
AcDbLine
 10
387.5
 20
520.7360679775014
 30
0.0
 11
387.5
 21
529.4569178858419
 31
0.0
  0
ARC
  5
1CB
330
1F
100
AcDbEntity
  8
LAY-1
  6
CONTINUOUS
 62
     2
100
AcDbCircle
 10
366.0000000000009
 20
572.999999999997
 30
0.0
 40
45.5
100
AcDbArc
 50
302.2748034138603
 51
307.6387707924002
  0
ARC
  5
1CC
330
1F
100
AcDbEntity
  8
LAY-1
  6
CONTINUOUS
 62
     2
100
AcDbCircle
 10
393.5
 20
529.4569178858419
 30
0.0
 40
6.000000000000002
100
AcDbArc
 50
122.2748034138602
 51
180.0
  0
ARC
  5
1CD
330
1F
100
AcDbEntity
  8
LAY-1
  6
CONTINUOUS
 62
     2
100
AcDbCircle
 10
345.0000000000025
 20
518.5000000000009
 30
0.0
 40
1.5
100
AcDbArc
 50
131.8103148957551
 51
180.0
  0
ARC
  5
1CE
330
1F
100
AcDbEntity
  8
LAY-1
  6
CONTINUOUS
 62
     2
100
AcDbCircle
 10
343.0000000000033
 20
520.7360679775014
 30
0.0
 40
1.5
100
AcDbArc
 50
311.8103148957579
 51
0.0
  0
LINE
  5
1CF
330
1F
100
AcDbEntity
  8
LAY-1
  6
CONTINUOUS
 62
     2
100
AcDbLine
 10
343.5000000000024
 20
509.4999999999969
 30
0.0
 11
343.5000000000025
 21
518.5000000000009
 31
0.0
  0
ARC
  5
1D0
330
1F
100
AcDbEntity
  8
LAY-1
  6
CONTINUOUS
 62
     2
100
AcDbCircle
 10
345.0000000000024
 20
509.4999999999969
 30
0.0
 40
1.5
100
AcDbArc
 50
180.0
 51
270.0
  0
LINE
  5
1D1
330
1F
100
AcDbEntity
  8
LAY-1
  6
CONTINUOUS
 62
     2
100
AcDbLine
 10
344.5000000000033
 20
520.7360679775014
 30
0.0
 11
344.5000000000033
 21
529.4569178858419
 31
0.0
  0
ARC
  5
1D2
330
1F
100
AcDbEntity
  8
LAY-1
  6
CONTINUOUS
 62
     2
100
AcDbCircle
 10
338.5000000000033
 20
529.4569178858419
 30
0.0
 40
6.000000000000004
100
AcDbArc
 50
0.0
 51
57.72519658613979
  0
ARC
  5
1D3
330
1F
100
AcDbEntity
  8
LAY-1
  6
CONTINUOUS
 62
     2
100
AcDbCircle
 10
366.0000000000009
 20
572.999999999997
 30
0.0
 40
45.5
100
AcDbArc
 50
232.3612292076002
 51
237.7251965861411
  0
LINE
  5
1D4
330
1F
100
AcDbEntity
  8
LAY-1
  6
CONTINUOUS
 62
     2
100
AcDbLine
 10
366.0000000000009
 20
507.999999999998
 30
0.0
 11
345.0
 21
507.9999999999969
 31
0.0
  0
LINE
  5
1D5
330
1F
100
AcDbEntity
  8
LAY-1
  6
CONTINUOUS
 62
     2
100
AcDbLine
 10
420.000000433184
 20
505.499999999998
 30
0.0
 11
420.0000004331837
 21
552.9999999999989
 31
0.0
  0
LINE
  5
1D6
330
1F
100
AcDbEntity
  8
LAY-1
  6
CONTINUOUS
 62
     2
100
AcDbLine
 10
420.0000004331843
 20
552.9999999999989
 30
0.0
 11
420.000000433184
 21
600.499999999998
 31
0.0
  0
LINE
  5
1D7
330
1F
100
AcDbEntity
  8
LAY-1
  6
CONTINUOUS
 62
     2
100
AcDbLine
 10
312.0000004331841
 20
552.9999999999981
 30
0.0
 11
312.0000004331839
 21
600.4999999999981
 31
0.0
  0
LINE
  5
1D8
330
1F
100
AcDbEntity
  8
LAY-1
  6
CONTINUOUS
 62
     2
100
AcDbLine
 10
312.0000004331839
 20
505.499999999998
 30
0.0
 11
312.0000004331836
 21
552.9999999999981
 31
0.0
  0
LINE
  5
1D9
330
1F
100
AcDbEntity
  8
LAY-1
  6
CONTINUOUS
 62
     2
100
AcDbLine
 10
325.0000004331839
 20
506.999999999998
 30
0.0
 11
325.0000004331836
 21
552.9999999999981
 31
0.0
  0
LINE
  5
1DA
330
1F
100
AcDbEntity
  8
LAY-1
  6
CONTINUOUS
 62
     2
100
AcDbLine
 10
325.0000004332052
 20
552.9999999999981
 30
0.0
 11
325.000000433213
 21
598.999999999997
 31
0.0
  0
LINE
  5
1DB
330
1F
100
AcDbEntity
  8
LAY-1
  6
CONTINUOUS
 62
     2
100
AcDbLine
 10
407.000000433184
 20
598.999999999998
 30
0.0
 11
407.0000004331844
 21
552.9999999999986
 31
0.0
  0
LINE
  5
1DC
330
1F
100
AcDbEntity
  8
LAY-1
  6
CONTINUOUS
 62
     2
100
AcDbLine
 10
407.0000004331796
 20
552.9999999999986
 30
0.0
 11
407.000000433174
 21
506.999999999998
 31
0.0
  0
LINE
  5
1DD
330
1F
100
AcDbEntity
  8
LAY-1
  6
CONTINUOUS
 62
     2
100
AcDbLine
 10
344.0
 20
519.6180339887501
 30
0.0
 11
388.000000000001
 21
519.6180339887507
 31
0.0
  0
ARC
  5
1DE
330
1F
100
AcDbEntity
  8
LAY-1
  6
CONTINUOUS
 62
     2
100
AcDbCircle
 10
348.5000000000019
 20
471.000000000002
 30
0.0
 40
1.0
100
AcDbArc
 50
180.0
 51
270.0
  0
LINE
  5
1DF
330
1F
100
AcDbEntity
  8
LAY-1
  6
CONTINUOUS
 62
     2
100
AcDbLine
 10
348.5000000000019
 20
470.0000000000016
 30
0.0
 11
366.0000000000006
 21
470.0000000000085
 31
0.0
  0
ARC
  5
1E0
330
1F
100
AcDbEntity
  8
LAY-1
  6
CONTINUOUS
 62
     2
100
AcDbCircle
 10
383.4999999999981
 20
471.000000000002
 30
0.0
 40
1.0
100
AcDbArc
 50
270.0
 51
0.0
  0
LINE
  5
1E1
330
1F
100
AcDbEntity
  8
LAY-1
  6
CONTINUOUS
 62
     2
100
AcDbLine
 10
384.5
 20
484.42264973081
 30
0.0
 11
384.5
 21
471.0
 31
0.0
  0
LINE
  5
1E2
330
1F
100
AcDbEntity
  8
LAY-1
  6
CONTINUOUS
 62
     2
100
AcDbLine
 10
366.0
 20
508.000000000003
 30
0.0
 11
384.999999999996
 21
508.000000000002
 31
0.0
  0
LINE
  5
1E3
330
1F
100
AcDbEntity
  8
LAY-1
  6
CONTINUOUS
 62
     2
100
AcDbLine
 10
366.0
 20
508.000000000003
 30
0.0
 11
347.000000000004
 21
508.000000000002
 31
0.0
  0
LINE
  5
1E4
330
1F
100
AcDbEntity
  8
LAY-1
  6
CONTINUOUS
 62
     2
100
AcDbLine
 10
347.5
 20
484.4226497308121
 30
0.0
 11
347.5
 21
471.0
 31
0.0
  0
LINE
  5
1E5
330
1F
100
AcDbEntity
  8
LAY-1
  6
CONTINUOUS
 62
     2
100
AcDbLine
 10
366.0
 20
461.0000000000075
 30
0.0
 11
382.0
 21
461.0000000000075
 31
0.0
  0
LINE
  5
1E6
330
1F
100
AcDbEntity
  8
LAY-1
  6
CONTINUOUS
 62
     2
100
AcDbLine
 10
382.0
 20
461.0000000000171
 30
0.0
 11
384.475208614068
 21
462.4290623596497
 31
0.0
  0
LINE
  5
1E7
330
1F
100
AcDbEntity
  8
LAY-1
  6
CONTINUOUS
 62
     2
100
AcDbLine
 10
384.4752086140697
 20
468.0000000000126
 30
0.0
 11
384.4752086140688
 21
462.4290623596502
 31
0.0
  0
LINE
  5
1E8
330
1F
100
AcDbEntity
  8
LAY-1
  6
CONTINUOUS
 62
     2
100
AcDbLine
 10
350.0
 20
461.0000000000171
 30
0.0
 11
347.524791385932
 21
462.4290623596497
 31
0.0
  0
LINE
  5
1E9
330
1F
100
AcDbEntity
  8
LAY-1
  6
CONTINUOUS
 62
     2
100
AcDbLine
 10
366.0
 20
461.0000000000075
 30
0.0
 11
350.0
 21
461.0000000000075
 31
0.0
  0
LINE
  5
1EA
330
1F
100
AcDbEntity
  8
LAY-1
  6
CONTINUOUS
 62
     2
100
AcDbLine
 10
347.5247913859303
 20
468.0000000000126
 30
0.0
 11
347.5247913859312
 21
462.4290623596502
 31
0.0
  0
ARC
  5
1EB
330
1F
100
AcDbEntity
  8
LAY-1
  6
CONTINUOUS
 62
     2
100
AcDbCircle
 10
366.01880493165
 20
491.4494164943394
 30
0.0
 40
30.44942230109784
100
AcDbArc
 50
252.3766719521315
 51
287.6233280478684
  0
ARC
  5
1EC
330
1F
100
AcDbEntity
  8
LAY-1
  6
CONTINUOUS
 62
     2
100
AcDbCircle
 10
379.8564092387001
 20
469.1786238159136
 30
0.0
 40
8.178623815904086
100
AcDbArc
 50
235.6157330695447
 51
304.3842669304548
  0
LINE
  5
1ED
330
1F
100
AcDbEntity
  8
LAY-1
  6
CONTINUOUS
 62
     2
100
AcDbLine
 10
384.475208614068
 20
468.0000000000126
 30
0.0
 11
366.0
 21
468.0000000000126
 31
0.0
  0
LINE
  5
1EE
330
1F
100
AcDbEntity
  8
LAY-1
  6
CONTINUOUS
 62
     2
100
AcDbLine
 10
347.524791385932
 20
468.0000000000126
 30
0.0
 11
366.0
 21
468.0000000000126
 31
0.0
  0
ARC
  5
1EF
330
1F
100
AcDbEntity
  8
LAY-1
  6
CONTINUOUS
 62
     2
100
AcDbCircle
 10
352.1435907612999
 20
469.1786238159136
 30
0.0
 40
8.178623815904086
100
AcDbArc
 50
235.6157330695453
 51
304.3842669304559
  0
LINE
  5
1F0
330
1F
100
AcDbEntity
  8
LAY-1
  6
CONTINUOUS
 62
     2
100
AcDbLine
 10
375.2376098633
 20
462.4290623596501
 30
0.0
 11
375.2376098633
 21
468.0000000000126
 31
0.0
  0
LINE
  5
1F1
330
1F
100
AcDbEntity
  8
LAY-1
  6
CONTINUOUS
 62
     2
100
AcDbLine
 10
356.8
 20
462.4290623596501
 30
0.0
 11
356.8
 21
468.0000000000126
 31
0.0
  0
LINE
  5
1F2
330
1F
100
AcDbEntity
  8
LAY-1
  6
CONTINUOUS
 62
     2
100
AcDbLine
 10
383.4999999999977
 20
470.0000000000016
 30
0.0
 11
365.9999999999994
 21
470.0000000000085
 31
0.0
  0
LINE
  5
1F3
330
1F
100
AcDbEntity
  8
LAY-1
  6
CONTINUOUS
 62
     2
100
AcDbLine
 10
381.0
 20
468.000000000011
 30
0.0
 11
381.0000000000008
 21
470.0000000000025
 31
0.0
  0
LINE
  5
1F4
330
1F
100
AcDbEntity
  8
LAY-1
  6
CONTINUOUS
 62
     2
100
AcDbLine
 10
351.0
 20
468.000000000011
 30
0.0
 11
350.9999999999992
 21
470.0000000000016
 31
0.0
  0
LINE
  5
1F5
330
1F
100
AcDbEntity
  8
LAY-1
  6
CONTINUOUS
 62
     2
100
AcDbLine
 10
361.000000000029
 20
456.36602540378
 30
0.0
 11
366.000000000029
 21
456.366025403782
 31
0.0
  0
LINE
  5
1F6
330
1F
100
AcDbEntity
  8
LAY-1
  6
CONTINUOUS
 62
     2
100
AcDbLine
 10
361.000000000029
 20
456.36602540378
 30
0.0
 11
361.500000000029
 21
455.499999999996
 31
0.0
  0
LINE
  5
1F7
330
1F
100
AcDbEntity
  8
LAY-1
  6
CONTINUOUS
 62
     2
100
AcDbLine
 10
371.000000000029
 20
456.3660254037831
 30
0.0
 11
370.500000000029
 21
455.499999999999
 31
0.0
  0
LINE
  5
1F8
330
1F
100
AcDbEntity
  8
LAY-1
  6
CONTINUOUS
 62
     2
100
AcDbLine
 10
371.000000000029
 20
456.3660254037831
 30
0.0
 11
366.000000000029
 21
456.366025403782
 31
0.0
  0
LINE
  5
1F9
330
1F
100
AcDbEntity
  8
LAY-1
  6
CONTINUOUS
 62
     2
100
AcDbLine
 10
371.0000000000171
 20
461.0000000000075
 30
0.0
 11
371.000000000029
 21
456.3660254037831
 31
0.0
  0
LINE
  5
1FA
330
1F
100
AcDbEntity
  8
LAY-1
  6
CONTINUOUS
 62
     2
100
AcDbLine
 10
361.0000000000171
 20
461.0000000000075
 30
0.0
 11
361.000000000029
 21
456.36602540378
 31
0.0
  0
LINE
  5
1FB
330
1F
100
AcDbEntity
  8
LAY-1
  6
CONTINUOUS
 62
     2
100
AcDbLine
 10
366.000000000025
 20
455.499999999977
 30
0.0
 11
375.1277317427071
 21
455.49999999998
 31
0.0
  0
LINE
  5
1FC
330
1F
100
AcDbEntity
  8
LAY-1
  6
CONTINUOUS
 62
     2
100
AcDbLine
 10
332.500000000028
 20
448.499999999967
 30
0.0
 11
333.257073584643
 21
448.4999999999681
 31
0.0
  0
ARC
  5
1FD
330
1F
100
AcDbEntity
  8
LAY-1
  6
CONTINUOUS
 62
     2
100
AcDbCircle
 10
377.999999997578
 20
455.3660687472991
 30
0.0
 40
2.0
100
AcDbArc
 50
196.7795194924825
 51
262.3377443392809
  0
ARC
  5
1FE
330
1F
100
AcDbEntity
  8
LAY-1
  6
CONTINUOUS
 62
     2
100
AcDbCircle
 10
375.1277317432339
 20
454.49999999998
 30
0.0
 40
1.0
100
AcDbArc
 50
16.77951949248344
 51
90.00000000000001
  0
ARC
  5
1FF
330
1F
100
AcDbEntity
  8
LAY-1
  6
CONTINUOUS
 62
     2
100
AcDbCircle
 10
332.5000000000289
 20
441.999999999967
 30
0.0
 40
6.500000000000004
100
AcDbArc
 50
90.00000000000001
 51
270.0
  0
LINE
  5
200
330
1F
100
AcDbEntity
  8
LAY-1
  6
CONTINUOUS
 62
     2
100
AcDbLine
 10
399.4999999966099
 20
435.499999999987
 30
0.0
 11
394.9999999977279
 21
435.499999999986
 31
0.0
  0
LINE
  5
201
330
1F
100
AcDbEntity
  8
LAY-1
  6
CONTINUOUS
 62
     2
100
AcDbLine
 10
366.000000000025
 20
455.499999999977
 30
0.0
 11
356.8722682573439
 21
455.4999999999751
 31
0.0
  0
ARC
  5
202
330
1F
100
AcDbEntity
  8
LAY-1
  6
CONTINUOUS
 62
     2
100
AcDbCircle
 10
354.000000002472
 20
455.366068747292
 30
0.0
 40
2.0
100
AcDbArc
 50
277.6622556607491
 51
343.2204805075237
  0
ARC
  5
203
330
1F
100
AcDbEntity
  8
LAY-1
  6
CONTINUOUS
 62
     2
100
AcDbCircle
 10
356.872268256818
 20
454.4999999999751
 30
0.0
 40
1.0
100
AcDbArc
 50
90.00000000000001
 51
163.2204805075228
  0
ARC
  5
204
330
1F
100
AcDbEntity
  8
LAY-1
  6
CONTINUOUS
 62
     2
100
AcDbCircle
 10
399.5000000000289
 20
441.999999999987
 30
0.0
 40
6.500000000000004
100
AcDbArc
 50
270.0
 51
90.00000000000001
  0
LINE
  5
205
330
1F
100
AcDbEntity
  8
LAY-1
  6
CONTINUOUS
 62
     2
100
AcDbLine
 10
396.0000000000318
 20
435.499999999986
 30
0.0
 11
366.0
 21
435.4999999999773
 31
0.0
  0
ARC
  5
206
330
1F
100
AcDbEntity
  8
LAY-1
  6
CONTINUOUS
 62
     2
100
AcDbCircle
 10
375.999999997583
 20
440.49999999998
 30
0.0
 40
13.00000000000001
100
AcDbArc
 50
37.97987244486845
 51
82.33774433925313
  0
LINE
  5
207
330
1F
100
AcDbEntity
  8
LAY-1
  6
CONTINUOUS
 62
     2
100
AcDbLine
 10
399.5000000000268
 20
448.499999999987
 30
0.0
 11
366.0
 21
448.499999999987
 31
0.0
  0
ARC
  5
208
330
1F
100
AcDbEntity
  8
LAY-1
  6
CONTINUOUS
 62
     2
100
AcDbCircle
 10
356.000000002477
 20
440.4999999999741
 30
0.0
 40
13.00000000000001
100
AcDbArc
 50
97.66225567981719
 51
142.0201275551476
  0
LINE
  5
209
330
1F
100
AcDbEntity
  8
LAY-1
  6
CONTINUOUS
 62
     2
100
AcDbLine
 10
332.500000000028
 20
448.499999999967
 30
0.0
 11
366.0
 21
448.499999999967
 31
0.0
  0
LINE
  5
20A
330
1F
100
AcDbEntity
  8
LAY-1
  6
CONTINUOUS
 62
     2
100
AcDbLine
 10
332.5000000000289
 20
435.499999999967
 30
0.0
 11
366.0
 21
435.4999999999769
 31
0.0
  0
LINE
  5
20B
330
1F
100
AcDbEntity
  8
LAY-1
  6
CONTINUOUS
 62
     2
100
AcDbLine
 10
374.431386830667
 20
453.74265321858
 30
0.0
 11
375.0899999999999
 21
453.74265321858
 31
0.0
  0
LINE
  5
20C
330
1F
100
AcDbEntity
  8
LAY-1
  6
CONTINUOUS
 62
     2
100
AcDbLine
 10
372.5712702620247
 20
452.4774772458562
 30
0.0
 11
371.0
 21
448.49999999999
 31
0.0
  0
ARC
  5
20D
330
1F
100
AcDbEntity
  8
LAY-1
  6
CONTINUOUS
 62
     2
100
AcDbCircle
 10
374.431386830667
 20
451.74265321858
 30
0.0
 40
2.0
100
AcDbArc
 50
90.00000000000001
 51
158.4439022635383
  0
LINE
  5
20E
330
1F
100
AcDbEntity
  8
LAY-1
  6
CONTINUOUS
 62
     2
100
AcDbLine
 10
356.8800000000001
 20
453.74265321858
 30
0.0
 11
357.568613169333
 21
453.74265321858
 31
0.0
  0
LINE
  5
20F
330
1F
100
AcDbEntity
  8
LAY-1
  6
CONTINUOUS
 62
     2
100
AcDbLine
 10
359.4287297379753
 20
452.4774772458562
 30
0.0
 11
361.0
 21
448.49999999999
 31
0.0
  0
ARC
  5
210
330
1F
100
AcDbEntity
  8
LAY-1
  6
CONTINUOUS
 62
     2
100
AcDbCircle
 10
357.568613169333
 20
451.74265321858
 30
0.0
 40
2.0
100
AcDbArc
 50
21.55609773646178
 51
90.00000000000001
  0
LINE
  5
211
330
1F
100
AcDbEntity
  8
LAY-1
  6
EXLTYPE2
 62
     1
100
AcDbLine
 10
366.0000000000009
 20
584.271636731445
 30
0.0
 11
366.0000000000028
 21
429.1999999999992
 31
0.0
  0
LINE
  5
212
330
1F
100
AcDbEntity
  8
LAY-1
  6
EXLTYPE2
 62
     1
100
AcDbLine
 10
427.4000000000001
 20
552.9999999999989
 30
0.0
 11
305.994861852167
 21
552.999999999998
 31
0.0
  0
ARC
  5
213
330
1F
100
AcDbEntity
  8
LAY-1
  6
CONTINUOUS
 62
     2
100
AcDbCircle
 10
366.000000000034
 20
438.999999999976
 30
0.0
 40
4.5
100
AcDbArc
 50
231.057558731001
 51
308.9424412690228
  0
TEXT
  5
214
330
1F
100
AcDbEntity
  8
LAY-1
  6
CONTINUOUS
 62
     4
100
AcDbText
 10
385.4046920270397
 20
562.562991899779
 30
0.0
 40
5.4566932
  1
9
 50
180.0
 41
0.5727179893635014
  7
EXCADSTD
 72
     5
 11
383.0236281351712
 21
562.562991899779
 31
0.0
100
AcDbText
  0
TEXT
  5
215
330
1F
100
AcDbEntity
  8
LAY-1
  6
CONTINUOUS
 62
     4
100
AcDbText
 10
367.4046920270397
 20
562.5629918997771
 30
0.0
 40
5.4566932
  1
7
 50
180.0
 41
0.5390286958715307
  7
EXCADSTD
 72
     5
 11
365.0236281351712
 21
562.5629918997771
 31
0.0
100
AcDbText
  0
TEXT
  5
216
330
1F
100
AcDbEntity
  8
LAY-1
  6
CONTINUOUS
 62
     4
100
AcDbText
 10
379.4046920270397
 20
562.562991899779
 30
0.0
 40
5.4566932
  1
D
 50
180.0
 41
0.5090826572120012
  7
EXCADSTD
 72
     5
 11
377.0236281351712
 21
562.562991899779
 31
0.0
100
AcDbText
  0
LINE
  5
217
330
1F
100
AcDbEntity
  8
LAY-1
  6
CONTINUOUS
 62
     2
100
AcDbLine
 10
387.000000000005
 20
548.999999999779
 30
0.0
 11
363.000000000005
 21
548.9999999997791
 31
0.0
  0
LINE
  5
218
330
1F
100
AcDbEntity
  8
LAY-1
  6
CONTINUOUS
 62
     2
100
AcDbLine
 10
381.000000000005
 20
542.499999999779
 30
0.0
 11
381.000000000005
 21
555.499999999779
 31
0.0
  0
LINE
  5
219
330
1F
100
AcDbEntity
  8
LAY-1
  6
CONTINUOUS
 62
     2
100
AcDbLine
 10
375.000000000005
 20
555.4999999997771
 30
0.0
 11
375.000000000005
 21
542.4999999997771
 31
0.0
  0
LINE
  5
21A
330
1F
100
AcDbEntity
  8
LAY-1
  6
CONTINUOUS
 62
     2
100
AcDbLine
 10
363.000000000005
 20
542.4999999997771
 30
0.0
 11
387.000000000005
 21
542.499999999779
 31
0.0
  0
LINE
  5
21B
330
1F
100
AcDbEntity
  8
LAY-1
  6
CONTINUOUS
 62
     2
100
AcDbLine
 10
363.000000000005
 20
555.4999999997771
 30
0.0
 11
363.000000000005
 21
542.4999999997771
 31
0.0
  0
LINE
  5
21C
330
1F
100
AcDbEntity
  8
LAY-1
  6
CONTINUOUS
 62
     2
100
AcDbLine
 10
387.000000000005
 20
555.499999999779
 30
0.0
 11
363.000000000005
 21
555.4999999997771
 31
0.0
  0
LINE
  5
21D
330
1F
100
AcDbEntity
  8
LAY-1
  6
CONTINUOUS
 62
     2
100
AcDbLine
 10
387.000000000005
 20
542.499999999779
 30
0.0
 11
387.000000000005
 21
555.499999999779
 31
0.0
  0
LINE
  5
21E
330
1F
100
AcDbEntity
  8
LAY-1
  6
CONTINUOUS
 62
     2
100
AcDbLine
 10
369.000000000005
 20
542.4999999997771
 30
0.0
 11
369.000000000005
 21
555.4999999997771
 31
0.0
  0
LINE
  5
21F
330
1F
100
AcDbEntity
  8
LAY-1
  6
CONTINUOUS
 62
     2
100
AcDbLine
 10
344.000000000005
 20
564.4999999997791
 30
0.0
 11
388.000000000005
 21
564.499999999779
 31
0.0
  0
LINE
  5
220
330
1F
100
AcDbEntity
  8
LAY-1
  6
CONTINUOUS
 62
     2
100
AcDbLine
 10
344.000000000005
 20
541.4999999997791
 30
0.0
 11
344.000000000005
 21
564.4999999997791
 31
0.0
  0
LINE
  5
221
330
1F
100
AcDbEntity
  8
LAY-1
  6
CONTINUOUS
 62
     2
100
AcDbLine
 10
388.000000000005
 20
541.499999999779
 30
0.0
 11
344.000000000005
 21
541.4999999997791
 31
0.0
  0
LINE
  5
222
330
1F
100
AcDbEntity
  8
LAY-1
  6
CONTINUOUS
 62
     2
100
AcDbLine
 10
388.000000000005
 20
564.499999999779
 30
0.0
 11
388.000000000005
 21
541.499999999779
 31
0.0
  0
LINE
  5
223
330
1F
100
AcDbEntity
  8
LAY-1
  6
CONTINUOUS
 62
     2
100
AcDbLine
 10
356.477192269696
 20
552.905654099218
 30
0.0
 11
358.143875603196
 21
552.905654099218
 31
0.0
  0
LINE
  5
224
330
1F
100
AcDbEntity
  8
LAY-1
  6
CONTINUOUS
 62
     2
100
AcDbLine
 10
356.477192269696
 20
555.4056790994681
 30
0.0
 11
356.477192269696
 21
552.905654099218
 31
0.0
  0
LINE
  5
225
330
1F
100
AcDbEntity
  8
LAY-1
  6
CONTINUOUS
 62
     2
100
AcDbLine
 10
357.477202269796
 20
555.9056840995181
 30
0.0
 11
356.477192269696
 21
555.4056790994681
 31
0.0
  0
LINE
  5
226
330
1F
100
AcDbEntity
  8
LAY-1
  6
CONTINUOUS
 62
     2
100
AcDbLine
 10
353.4771622693961
 20
555.9056840995181
 30
0.0
 11
357.477202269796
 21
555.9056840995181
 31
0.0
  0
LINE
  5
227
330
1F
100
AcDbEntity
  8
LAY-1
  6
CONTINUOUS
 62
     2
100
AcDbLine
 10
354.477172269496
 20
555.4056790994681
 30
0.0
 11
353.4771622693961
 21
555.9056840995181
 31
0.0
  0
LINE
  5
228
330
1F
100
AcDbEntity
  8
LAY-1
  6
CONTINUOUS
 62
     2
100
AcDbLine
 10
354.477172269496
 20
552.905654099218
 30
0.0
 11
354.477172269496
 21
555.4056790994681
 31
0.0
  0
LINE
  5
229
330
1F
100
AcDbEntity
  8
LAY-1
  6
CONTINUOUS
 62
     2
100
AcDbLine
 10
353.4771622693961
 20
552.905654099218
 30
0.0
 11
354.477172269496
 21
552.905654099218
 31
0.0
  0
LINE
  5
22A
330
1F
100
AcDbEntity
  8
LAY-1
  6
CONTINUOUS
 62
     2
100
AcDbLine
 10
351.4771422691961
 20
552.905654099218
 30
0.0
 11
348.810448935596
 21
552.905654099218
 31
0.0
  0
LINE
  5
22B
330
1F
100
AcDbEntity
  8
LAY-1
  6
CONTINUOUS
 62
     2
100
AcDbLine
 10
357.477202269796
 20
550.9056340990181
 30
0.0
 11
356.477192269696
 21
550.9056340990181
 31
0.0
  0
LINE
  5
22C
330
1F
100
AcDbEntity
  8
LAY-1
  6
CONTINUOUS
 62
     2
100
AcDbLine
 10
354.477172269496
 20
550.9056340990181
 30
0.0
 11
349.477122268996
 21
550.9056340990181
 31
0.0
  0
LINE
  5
22D
330
1F
100
AcDbEntity
  8
LAY-1
  6
CONTINUOUS
 62
     2
100
AcDbLine
 10
349.477122268996
 20
550.9056340990181
 30
0.0
 11
349.477122268996
 21
550.2389607656181
 31
0.0
  0
LINE
  5
22E
330
1F
100
AcDbEntity
  8
LAY-1
  6
CONTINUOUS
 62
     2
100
AcDbLine
 10
349.477122268996
 20
550.2389607656181
 30
0.0
 11
347.6437706021461
 21
553.9056640993181
 31
0.0
  0
LINE
  5
22F
330
1F
100
AcDbEntity
  8
LAY-1
  6
CONTINUOUS
 62
     2
100
AcDbLine
 10
347.6437706021461
 20
553.9056640993181
 30
0.0
 11
348.810448935596
 21
552.905654099218
 31
0.0
  0
LINE
  5
230
330
1F
100
AcDbEntity
  8
LAY-1
  6
CONTINUOUS
 62
     2
100
AcDbLine
 10
357.477202269796
 20
550.9056340990181
 30
0.0
 11
357.477202269796
 21
550.2389607656181
 31
0.0
  0
LINE
  5
231
330
1F
100
AcDbEntity
  8
LAY-1
  6
CONTINUOUS
 62
     2
100
AcDbLine
 10
357.477202269796
 20
550.2389607656181
 30
0.0
 11
359.3105539366461
 21
553.9056640993181
 31
0.0
  0
LINE
  5
232
330
1F
100
AcDbEntity
  8
LAY-1
  6
CONTINUOUS
 62
     2
100
AcDbLine
 10
359.3105539366461
 20
553.9056640993181
 30
0.0
 11
358.143875603196
 21
552.905654099218
 31
0.0
  0
LINE
  5
233
330
1F
100
AcDbEntity
  8
LAY-1
  6
CONTINUOUS
 62
     2
100
AcDbLine
 10
353.4771622693961
 20
552.905654099218
 30
0.0
 11
353.4771622693961
 21
560.433593423612
 31
0.0
  0
LINE
  5
234
330
1F
100
AcDbEntity
  8
LAY-1
  6
CONTINUOUS
 62
     2
100
AcDbLine
 10
353.4771622693961
 20
561.4057391000681
 30
0.0
 11
354.477172269496
 21
561.9057441001181
 31
0.0
  0
LINE
  5
235
330
1F
100
AcDbEntity
  8
LAY-1
  6
CONTINUOUS
 62
     2
100
AcDbLine
 10
354.477172269496
 20
561.9057441001181
 30
0.0
 11
350.477132269096
 21
561.9057441001181
 31
0.0
  0
LINE
  5
236
330
1F
100
AcDbEntity
  8
LAY-1
  6
CONTINUOUS
 62
     2
100
AcDbLine
 10
350.477132269096
 20
561.9057441001181
 30
0.0
 11
351.4771422691961
 21
561.4057391000681
 31
0.0
  0
LINE
  5
237
330
1F
100
AcDbEntity
  8
LAY-1
  6
CONTINUOUS
 62
     2
100
AcDbLine
 10
351.4771422691961
 20
561.4057391000681
 30
0.0
 11
351.4771422691961
 21
560.6516982520751
 31
0.0
  0
LINE
  5
238
330
1F
100
AcDbEntity
  8
LAY-1
  6
CONTINUOUS
 62
     2
100
AcDbLine
 10
357.477202269796
 20
543.9055640983181
 30
0.0
 11
354.477172269496
 21
544.9683207926911
 31
0.0
  0
LINE
  5
239
330
1F
100
AcDbEntity
  8
LAY-1
  6
CONTINUOUS
 62
     2
100
AcDbLine
 10
357.477202269796
 20
543.9055640983181
 30
0.0
 11
356.477192269696
 21
545.4893814493961
 31
0.0
  0
LINE
  5
23A
330
1F
100
AcDbEntity
  8
LAY-1
  6
CONTINUOUS
 62
     2
100
AcDbLine
 10
356.477192269696
 20
550.9056340990181
 30
0.0
 11
356.477192269696
 21
546.6605936502151
 31
0.0
  0
ARC
  5
23B
330
1F
100
AcDbEntity
  8
LAY-1
  6
CONTINUOUS
 62
     2
100
AcDbCircle
 10
353.4771622693961
 20
552.905654099218
 30
0.0
 40
8.000080000800018
100
AcDbArc
 50
104.4775121860802
 51
277.1807557813198
  0
ARC
  5
23C
330
1F
100
AcDbEntity
  8
LAY-1
  6
CONTINUOUS
 62
     2
100
AcDbCircle
 10
353.4771622693961
 20
552.905654099218
 30
0.0
 40
8.000080000800018
100
AcDbArc
 50
292.0243128371998
 51
90.00000000000001
  0
LINE
  5
23D
330
1F
100
AcDbEntity
  8
LAY-1
  6
CONTINUOUS
 62
     2
100
AcDbLine
 10
353.4771622693961
 20
560.9057341000181
 30
0.0
 11
353.4771622693961
 21
561.4057391000681
 31
0.0
  0
ARC
  5
23E
330
1F
100
AcDbEntity
  8
LAY-1
  6
CONTINUOUS
 62
     2
100
AcDbCircle
 10
351.4771422691961
 20
552.905654099218
 30
0.0
 40
8.000080000800018
100
AcDbArc
 50
308.6821874534401
 51
63.43494882300043
  0
ARC
  5
23F
330
1F
100
AcDbEntity
  8
LAY-1
  6
CONTINUOUS
 62
     2
100
AcDbCircle
 10
353.4771622693961
 20
556.9056940996181
 30
0.0
 40
3.527899323994008
100
AcDbArc
 50
63.43494882300002
 51
90.00000000000001
  0
ARC
  5
240
330
1F
100
AcDbEntity
  8
LAY-1
  6
CONTINUOUS
 62
     2
100
AcDbCircle
 10
355.477182269596
 20
552.905654099218
 30
0.0
 40
8.000080000800018
100
AcDbArc
 50
119.9999999998802
 51
243.4349488230001
  0
ARC
  5
241
330
1F
100
AcDbEntity
  8
LAY-1
  6
CONTINUOUS
 62
     2
100
AcDbCircle
 10
353.4771622693961
 20
548.9056140988181
 30
0.0
 40
3.527899323994008
100
AcDbArc
 50
243.4349488229992
 51
286.4666760696
  0
LINE
  5
242
330
1F
100
AcDbEntity
  8
LAY-1
  6
CONTINUOUS
 62
     2
100
AcDbLine
 10
354.477172269496
 20
545.522412414033
 30
0.0
 11
354.477172269496
 21
550.9056340990181
 31
0.0
  0
LINE
  5
243
330
1F
100
AcDbEntity
  8
LAY-1
  6
CONTINUOUS
 62
     2
100
AcDbLine
 10
351.4771422691961
 20
559.8339266122191
 30
0.0
 11
351.4771422691961
 21
552.905654099218
 31
0.0
  0
LINE
  5
244
330
1F
100
AcDbEntity
  8
LAY-1
  6
CONTINUOUS
 62
     2
100
AcDbLine
 10
372.000000000005
 20
563.4999999997791
 30
0.0
 11
372.000000000005
 21
556.499999999779
 31
0.0
  0
LINE
  5
245
330
1F
100
AcDbEntity
  8
LAY-1
  6
EXLTYPE2
 62
     1
100
AcDbLine
 10
604.0999999999981
 20
413.127585827468
 30
0.0
 11
604.0999999999981
 21
350.888175446907
 31
0.0
  0
LINE
  5
246
330
1F
100
AcDbEntity
  8
LAY-1
  6
EXLTYPE2
 62
     1
100
AcDbLine
 10
604.0999999999981
 20
301.8724141725399
 30
0.0
 11
604.0999999999972
 21
364.111824553101
 31
0.0
  0
LINE
  5
247
330
1F
100
AcDbEntity
  8
LAY-1
  6
EXLTYPE2
 62
     1
100
AcDbLine
 10
621.9163279543902
 20
375.316327954397
 30
0.0
 11
640.8511164745821
 21
394.2511164745899
 31
0.0
  0
LINE
  5
248
330
1F
100
AcDbEntity
  8
LAY-1
  6
EXLTYPE2
 62
     1
100
AcDbLine
 10
586.7171007401441
 20
374.882899259858
 30
0.0
 11
567.1535645255651
 21
394.4464354744359
 31
0.0
  0
LINE
  5
249
330
1F
100
AcDbEntity
  8
LAY-1
  6
EXLTYPE2
 62
     1
100
AcDbLine
 10
640.4893555702481
 20
321.110644429752
 30
0.0
 11
621.7960806290921
 21
339.803919370908
 31
0.0
  0
LINE
  5
24A
330
1F
100
AcDbEntity
  8
LAY-1
  6
EXLTYPE2
 62
     1
100
AcDbLine
 10
567.720460509744
 20
321.120460509751
 30
0.0
 11
586.2351338184201
 21
339.635133818428
 31
0.0
  0
CIRCLE
  5
24B
330
1F
100
AcDbEntity
  8
LAY-1
  6
EXLTYPE2
 62
     1
100
AcDbCircle
 10
604.0999999999972
 20
357.500000000004
 30
0.0
 40
35.0
  0
CIRCLE
  5
24C
330
1F
100
AcDbEntity
  8
LAY-1
  6
CONTINUOUS
 62
     2
100
AcDbCircle
 10
628.8487373415262
 20
382.248737341533
 30
0.0
 40
7.500000000000004
  0
LINE
  5
24D
330
1F
100
AcDbEntity
  8
LAY-1
  6
CONTINUOUS
 62
     2
100
AcDbLine
 10
573.546136160176
 20
337.500000000004
 30
0.0
 11
585.1563891567591
 21
337.500000000004
 31
0.0
  0
LINE
  5
24E
330
1F
100
AcDbEntity
  8
LAY-1
  6
CONTINUOUS
 62
     2
100
AcDbLine
 10
607.0999999999981
 20
357.500000000004
 30
0.0
 11
607.0999999993562
 21
364.373863542718
 31
0.0
  0
LINE
  5
24F
330
1F
100
AcDbEntity
  8
LAY-1
  6
CONTINUOUS
 62
     2
100
AcDbLine
 10
607.0999999999981
 20
357.500000000004
 30
0.0
 11
607.0999999993562
 21
350.626136457291
 31
0.0
  0
LINE
  5
250
330
1F
100
AcDbEntity
  8
LAY-1
  6
CONTINUOUS
 62
     2
100
AcDbLine
 10
573.546136160176
 20
377.500000000004
 30
0.0
 11
585.1563891567591
 21
377.500000000004
 31
0.0
  0
CIRCLE
  5
251
330
1F
100
AcDbEntity
  8
LAY-1
  6
CONTINUOUS
 62
     2
100
AcDbCircle
 10
604.0999999999972
 20
357.500000000004
 30
0.0
 40
47.50000000000004
  0
CIRCLE
  5
252
330
1F
100
AcDbEntity
  8
LAY-1
  6
CONTINUOUS
 62
     2
100
AcDbCircle
 10
604.0999999999972
 20
357.500000000004
 30
0.0
 40
7.500000000000004
  0
CIRCLE
  5
253
330
1F
100
AcDbEntity
  8
LAY-1
  6
CONTINUOUS
 62
     2
100
AcDbCircle
 10
579.3512626584682
 20
332.751262658475
 30
0.0
 40
7.500000000000004
  0
CIRCLE
  5
254
330
1F
100
AcDbEntity
  8
LAY-1
  6
CONTINUOUS
 62
     2
100
AcDbCircle
 10
579.3512626584682
 20
382.248737341534
 30
0.0
 40
7.500000000000004
  0
CIRCLE
  5
255
330
1F
100
AcDbEntity
  8
LAY-1
  6
CONTINUOUS
 62
     2
100
AcDbCircle
 10
628.8487373415262
 20
332.751262658475
 30
0.0
 40
7.500000000000004
  0
CIRCLE
  5
256
330
1F
100
AcDbEntity
  8
LAY-1
  6
CONTINUOUS
 62
     2
100
AcDbCircle
 10
604.1000000000001
 20
357.5
 30
0.0
 40
25.5
  0
ARC
  5
257
330
1F
100
AcDbEntity
  8
LAY-1
  6
CONTINUOUS
 62
     2
100
AcDbCircle
 10
522.1000000000022
 20
340.0000000000019
 30
0.0
 40
1.0
100
AcDbArc
 50
180.0
 51
270.0
  0
LINE
  5
258
330
1F
100
AcDbEntity
  8
LAY-1
  6
CONTINUOUS
 62
     2
100
AcDbLine
 10
521.1000000000017
 20
340.0000000000019
 30
0.0
 11
521.1000000000085
 21
357.5000000000006
 31
0.0
  0
ARC
  5
259
330
1F
100
AcDbEntity
  8
LAY-1
  6
CONTINUOUS
 62
     2
100
AcDbCircle
 10
522.1000000000022
 20
374.9999999999981
 30
0.0
 40
1.0
100
AcDbArc
 50
90.00000000000001
 51
180.0
  0
LINE
  5
25A
330
1F
100
AcDbEntity
  8
LAY-1
  6
CONTINUOUS
 62
     2
100
AcDbLine
 10
512.1000000000076
 20
357.5
 30
0.0
 11
512.1000000000076
 21
373.5
 31
0.0
  0
LINE
  5
25B
330
1F
100
AcDbEntity
  8
LAY-1
  6
CONTINUOUS
 62
     2
100
AcDbLine
 10
512.1000000000172
 20
373.5
 30
0.0
 11
513.5290623596497
 21
375.975208614068
 31
0.0
  0
LINE
  5
25C
330
1F
100
AcDbEntity
  8
LAY-1
  6
CONTINUOUS
 62
     2
100
AcDbLine
 10
519.1000000000126
 20
375.9752086140697
 30
0.0
 11
513.5290623596502
 21
375.9752086140688
 31
0.0
  0
LINE
  5
25D
330
1F
100
AcDbEntity
  8
LAY-1
  6
CONTINUOUS
 62
     2
100
AcDbLine
 10
512.1000000000172
 20
341.5
 30
0.0
 11
513.5290623596497
 21
339.024791385932
 31
0.0
  0
LINE
  5
25E
330
1F
100
AcDbEntity
  8
LAY-1
  6
CONTINUOUS
 62
     2
100
AcDbLine
 10
512.1000000000076
 20
357.5
 30
0.0
 11
512.1000000000076
 21
341.5
 31
0.0
  0
LINE
  5
25F
330
1F
100
AcDbEntity
  8
LAY-1
  6
CONTINUOUS
 62
     2
100
AcDbLine
 10
519.1000000000126
 20
339.0247913859303
 30
0.0
 11
513.5290623596502
 21
339.0247913859312
 31
0.0
  0
ARC
  5
260
330
1F
100
AcDbEntity
  8
LAY-1
  6
CONTINUOUS
 62
     2
100
AcDbCircle
 10
542.5494164943395
 20
357.51880493165
 30
0.0
 40
30.44942230109784
100
AcDbArc
 50
162.3766719521317
 51
197.6233280478686
  0
ARC
  5
261
330
1F
100
AcDbEntity
  8
LAY-1
  6
CONTINUOUS
 62
     2
100
AcDbCircle
 10
520.2786238159138
 20
371.3564092387001
 30
0.0
 40
8.178623815904086
100
AcDbArc
 50
145.6157330695453
 51
214.3842669304555
  0
LINE
  5
262
330
1F
100
AcDbEntity
  8
LAY-1
  6
CONTINUOUS
 62
     2
100
AcDbLine
 10
519.1000000000126
 20
375.975208614068
 30
0.0
 11
519.1000000000126
 21
357.5
 31
0.0
  0
LINE
  5
263
330
1F
100
AcDbEntity
  8
LAY-1
  6
CONTINUOUS
 62
     2
100
AcDbLine
 10
519.1000000000126
 20
339.024791385932
 30
0.0
 11
519.1000000000126
 21
357.5
 31
0.0
  0
ARC
  5
264
330
1F
100
AcDbEntity
  8
LAY-1
  6
CONTINUOUS
 62
     2
100
AcDbCircle
 10
520.2786238159138
 20
343.6435907612999
 30
0.0
 40
8.178623815904086
100
AcDbArc
 50
145.6157330695446
 51
214.3842669304548
  0
LINE
  5
265
330
1F
100
AcDbEntity
  8
LAY-1
  6
CONTINUOUS
 62
     2
100
AcDbLine
 10
513.5290623596502
 20
366.7376098633
 30
0.0
 11
519.1000000000126
 21
366.7376098633
 31
0.0
  0
LINE
  5
266
330
1F
100
AcDbEntity
  8
LAY-1
  6
CONTINUOUS
 62
     2
100
AcDbLine
 10
513.5290623596502
 20
348.3
 30
0.0
 11
519.1000000000126
 21
348.3
 31
0.0
  0
LINE
  5
267
330
1F
100
AcDbEntity
  8
LAY-1
  6
CONTINUOUS
 62
     2
100
AcDbLine
 10
521.1000000000017
 20
374.9999999999977
 30
0.0
 11
521.1000000000085
 21
357.4999999999994
 31
0.0
  0
LINE
  5
268
330
1F
100
AcDbEntity
  8
LAY-1
  6
CONTINUOUS
 62
     2
100
AcDbLine
 10
519.1000000000113
 20
372.5
 30
0.0
 11
521.1000000000026
 21
372.5000000000008
 31
0.0
  0
LINE
  5
269
330
1F
100
AcDbEntity
  8
LAY-1
  6
CONTINUOUS
 62
     2
100
AcDbLine
 10
519.1000000000113
 20
342.5
 30
0.0
 11
521.1000000000017
 21
342.4999999999992
 31
0.0
  0
LINE
  5
26A
330
1F
100
AcDbEntity
  8
LAY-1
  6
CONTINUOUS
 62
     2
100
AcDbLine
 10
507.4660254037801
 20
352.500000000029
 30
0.0
 11
507.4660254037822
 21
357.500000000029
 31
0.0
  0
LINE
  5
26B
330
1F
100
AcDbEntity
  8
LAY-1
  6
CONTINUOUS
 62
     2
100
AcDbLine
 10
507.4660254037801
 20
352.500000000029
 30
0.0
 11
506.5999999999963
 21
353.000000000029
 31
0.0
  0
LINE
  5
26C
330
1F
100
AcDbEntity
  8
LAY-1
  6
CONTINUOUS
 62
     2
100
AcDbLine
 10
507.4660254037831
 20
362.500000000029
 30
0.0
 11
506.599999999999
 21
362.000000000029
 31
0.0
  0
LINE
  5
26D
330
1F
100
AcDbEntity
  8
LAY-1
  6
CONTINUOUS
 62
     2
100
AcDbLine
 10
507.4660254037831
 20
362.500000000029
 30
0.0
 11
507.4660254037822
 21
357.500000000029
 31
0.0
  0
LINE
  5
26E
330
1F
100
AcDbEntity
  8
LAY-1
  6
CONTINUOUS
 62
     2
100
AcDbLine
 10
512.1000000000076
 20
362.5000000000171
 30
0.0
 11
507.4660254037831
 21
362.500000000029
 31
0.0
  0
LINE
  5
26F
330
1F
100
AcDbEntity
  8
LAY-1
  6
CONTINUOUS
 62
     2
100
AcDbLine
 10
512.1000000000076
 20
352.5000000000171
 30
0.0
 11
507.4660254037801
 21
352.500000000029
 31
0.0
  0
LINE
  5
270
330
1F
100
AcDbEntity
  8
LAY-1
  6
CONTINUOUS
 62
     2
100
AcDbLine
 10
506.5999999999772
 20
357.500000000025
 30
0.0
 11
506.5999999999801
 21
366.6277317427071
 31
0.0
  0
LINE
  5
271
330
1F
100
AcDbEntity
  8
LAY-1
  6
CONTINUOUS
 62
     2
100
AcDbLine
 10
499.5999999999672
 20
324.000000000028
 30
0.0
 11
499.5999999999681
 21
324.757073584643
 31
0.0
  0
ARC
  5
272
330
1F
100
AcDbEntity
  8
LAY-1
  6
CONTINUOUS
 62
     2
100
AcDbCircle
 10
506.4660687472992
 20
369.499999997578
 30
0.0
 40
2.0
100
AcDbArc
 50
187.6622556607205
 51
253.2204805075203
  0
ARC
  5
273
330
1F
100
AcDbEntity
  8
LAY-1
  6
CONTINUOUS
 62
     2
100
AcDbCircle
 10
505.5999999999801
 20
366.6277317432339
 30
0.0
 40
1.0
100
AcDbArc
 50
0.0000000000001719
 51
73.22048050752036
  0
ARC
  5
274
330
1F
100
AcDbEntity
  8
LAY-1
  6
CONTINUOUS
 62
     2
100
AcDbCircle
 10
493.0999999999672
 20
324.0000000000289
 30
0.0
 40
6.500000000000004
100
AcDbArc
 50
180.0
 51
0.0000000000001719
  0
LINE
  5
275
330
1F
100
AcDbEntity
  8
LAY-1
  6
CONTINUOUS
 62
     2
100
AcDbLine
 10
486.5999999999872
 20
390.9999999966099
 30
0.0
 11
486.5999999999862
 21
386.4999999977279
 31
0.0
  0
LINE
  5
276
330
1F
100
AcDbEntity
  8
LAY-1
  6
CONTINUOUS
 62
     2
100
AcDbLine
 10
506.5999999999772
 20
357.500000000025
 30
0.0
 11
506.5999999999751
 21
348.3722682573439
 31
0.0
  0
ARC
  5
277
330
1F
100
AcDbEntity
  8
LAY-1
  6
CONTINUOUS
 62
     2
100
AcDbCircle
 10
506.4660687472922
 20
345.500000002472
 30
0.0
 40
2.0
100
AcDbArc
 50
106.7795194924772
 51
172.3377443392525
  0
ARC
  5
278
330
1F
100
AcDbEntity
  8
LAY-1
  6
CONTINUOUS
 62
     2
100
AcDbCircle
 10
505.5999999999751
 20
348.372268256818
 30
0.0
 40
1.0
100
AcDbArc
 50
286.7795194924797
 51
0.0000000000001719
  0
ARC
  5
279
330
1F
100
AcDbEntity
  8
LAY-1
  6
CONTINUOUS
 62
     2
100
AcDbCircle
 10
493.0999999999872
 20
391.0000000000289
 30
0.0
 40
6.500000000000004
100
AcDbArc
 50
0.0000000000001719
 51
180.0
  0
LINE
  5
27A
330
1F
100
AcDbEntity
  8
LAY-1
  6
CONTINUOUS
 62
     2
100
AcDbLine
 10
486.5999999999862
 20
387.5000000000318
 30
0.0
 11
486.5999999999774
 21
357.5
 31
0.0
  0
ARC
  5
27B
330
1F
100
AcDbEntity
  8
LAY-1
  6
CONTINUOUS
 62
     2
100
AcDbCircle
 10
491.5999999999801
 20
367.499999997583
 30
0.0
 40
13.00000000000001
100
AcDbArc
 50
7.662255660746955
 51
52.02012755513135
  0
LINE
  5
27C
330
1F
100
AcDbEntity
  8
LAY-1
  6
CONTINUOUS
 62
     2
100
AcDbLine
 10
499.5999999999872
 20
391.0000000000268
 30
0.0
 11
499.5999999999872
 21
357.5
 31
0.0
  0
ARC
  5
27D
330
1F
100
AcDbEntity
  8
LAY-1
  6
CONTINUOUS
 62
     2
100
AcDbCircle
 10
491.5999999999742
 20
347.500000002477
 30
0.0
 40
13.00000000000001
100
AcDbArc
 50
307.9798724448524
 51
352.3377443201828
  0
LINE
  5
27E
330
1F
100
AcDbEntity
  8
LAY-1
  6
CONTINUOUS
 62
     2
100
AcDbLine
 10
499.5999999999672
 20
324.000000000028
 30
0.0
 11
499.5999999999672
 21
357.5
 31
0.0
  0
LINE
  5
27F
330
1F
100
AcDbEntity
  8
LAY-1
  6
CONTINUOUS
 62
     2
100
AcDbLine
 10
486.5999999999672
 20
324.0000000000289
 30
0.0
 11
486.5999999999769
 21
357.5
 31
0.0
  0
LINE
  5
280
330
1F
100
AcDbEntity
  8
LAY-1
  6
CONTINUOUS
 62
     2
100
AcDbLine
 10
504.8426532185802
 20
365.931386830667
 30
0.0
 11
504.8426532185802
 21
366.5899999999999
 31
0.0
  0
LINE
  5
281
330
1F
100
AcDbEntity
  8
LAY-1
  6
CONTINUOUS
 62
     2
100
AcDbLine
 10
503.5774772458562
 20
364.0712702620247
 30
0.0
 11
499.5999999999901
 21
362.5
 31
0.0
  0
ARC
  5
282
330
1F
100
AcDbEntity
  8
LAY-1
  6
CONTINUOUS
 62
     2
100
AcDbCircle
 10
502.8426532185802
 20
365.931386830667
 30
0.0
 40
2.0
100
AcDbArc
 50
291.5560977364618
 51
0.0
  0
LINE
  5
283
330
1F
100
AcDbEntity
  8
LAY-1
  6
CONTINUOUS
 62
     2
100
AcDbLine
 10
504.8426532185802
 20
348.3800000000001
 30
0.0
 11
504.8426532185802
 21
349.068613169333
 31
0.0
  0
LINE
  5
284
330
1F
100
AcDbEntity
  8
LAY-1
  6
CONTINUOUS
 62
     2
100
AcDbLine
 10
503.5774772458562
 20
350.9287297379753
 30
0.0
 11
499.5999999999901
 21
352.5
 31
0.0
  0
ARC
  5
285
330
1F
100
AcDbEntity
  8
LAY-1
  6
CONTINUOUS
 62
     2
100
AcDbCircle
 10
502.8426532185802
 20
349.068613169333
 30
0.0
 40
2.0
100
AcDbArc
 50
0.0
 51
68.44390226353825
  0
ARC
  5
286
330
1F
100
AcDbEntity
  8
LAY-1
  6
CONTINUOUS
 62
     2
100
AcDbCircle
 10
490.0999999999761
 20
357.500000000034
 30
0.0
 40
4.5
100
AcDbArc
 50
141.0575587309773
 51
218.9424412689986
  0
LINE
  5
287
330
1F
100
AcDbEntity
  8
LAY-1
  6
EXLTYPE2
 62
     1
100
AcDbLine
 10
481.6000000000001
 20
357.500000000004
 30
0.0
 11
661.776157705852
 21
357.500000000004
 31
0.0
  0
LINE
  5
288
330
1F
100
AcDbEntity
  8
LAY-1
  6
EXLTYPE2
 62
     1
100
AcDbLine
 10
127.9000000000819
 20
413.127585827468
 30
0.0
 11
127.9000000000819
 21
350.888175446907
 31
0.0
  0
LINE
  5
289
330
1F
100
AcDbEntity
  8
LAY-1
  6
EXLTYPE2
 62
     1
100
AcDbLine
 10
127.9000000000819
 20
301.8724141725399
 30
0.0
 11
127.9000000000829
 21
364.111824553101
 31
0.0
  0
LINE
  5
28A
330
1F
100
AcDbEntity
  8
LAY-1
  6
EXLTYPE2
 62
     1
100
AcDbLine
 10
110.0836720456898
 20
375.316327954397
 30
0.0
 11
91.14888352549792
 21
394.2511164745899
 31
0.0
  0
LINE
  5
28B
330
1F
100
AcDbEntity
  8
LAY-1
  6
EXLTYPE2
 62
     1
100
AcDbLine
 10
145.2828992599359
 20
374.882899259858
 30
0.0
 11
164.8464354745149
 21
394.4464354744359
 31
0.0
  0
LINE
  5
28C
330
1F
100
AcDbEntity
  8
LAY-1
  6
EXLTYPE2
 62
     1
100
AcDbLine
 10
91.51064442983193
 20
321.110644429752
 30
0.0
 11
110.2039193709879
 21
339.803919370908
 31
0.0
  0
LINE
  5
28D
330
1F
100
AcDbEntity
  8
LAY-1
  6
EXLTYPE2
 62
     1
100
AcDbLine
 10
164.279539490336
 20
321.120460509751
 30
0.0
 11
145.76486618166
 21
339.635133818428
 31
0.0
  0
CIRCLE
  5
28E
330
1F
100
AcDbEntity
  8
LAY-1
  6
EXLTYPE2
 62
     1
100
AcDbCircle
 10
127.9000000000829
 20
357.500000000004
 30
0.0
 40
35.0
  0
CIRCLE
  5
28F
330
1F
100
AcDbEntity
  8
LAY-1
  6
CONTINUOUS
 62
     2
100
AcDbCircle
 10
103.1512626585538
 20
382.248737341533
 30
0.0
 40
7.500000000000004
  0
LINE
  5
290
330
1F
100
AcDbEntity
  8
LAY-1
  6
CONTINUOUS
 62
     2
100
AcDbLine
 10
158.453863839904
 20
337.500000000004
 30
0.0
 11
146.8436108433209
 21
337.500000000004
 31
0.0
  0
LINE
  5
291
330
1F
100
AcDbEntity
  8
LAY-1
  6
CONTINUOUS
 62
     2
100
AcDbLine
 10
158.453863839904
 20
377.500000000004
 30
0.0
 11
146.8436108433209
 21
377.500000000004
 31
0.0
  0
CIRCLE
  5
292
330
1F
100
AcDbEntity
  8
LAY-1
  6
CONTINUOUS
 62
     2
100
AcDbCircle
 10
127.9000000000829
 20
357.500000000004
 30
0.0
 40
47.50000000000004
  0
CIRCLE
  5
293
330
1F
100
AcDbEntity
  8
LAY-1
  6
CONTINUOUS
 62
     2
100
AcDbCircle
 10
127.9000000000829
 20
357.500000000004
 30
0.0
 40
7.500000000000004
  0
CIRCLE
  5
294
330
1F
100
AcDbEntity
  8
LAY-1
  6
CONTINUOUS
 62
     2
100
AcDbCircle
 10
152.6487373416119
 20
332.751262658475
 30
0.0
 40
7.500000000000004
  0
CIRCLE
  5
295
330
1F
100
AcDbEntity
  8
LAY-1
  6
CONTINUOUS
 62
     2
100
AcDbCircle
 10
152.6487373416119
 20
382.248737341534
 30
0.0
 40
7.500000000000004
  0
CIRCLE
  5
296
330
1F
100
AcDbEntity
  8
LAY-1
  6
CONTINUOUS
 62
     2
100
AcDbCircle
 10
103.1512626585538
 20
332.751262658475
 30
0.0
 40
7.500000000000004
  0
CIRCLE
  5
297
330
1F
100
AcDbEntity
  8
LAY-1
  6
CONTINUOUS
 62
     2
100
AcDbCircle
 10
127.9000000000799
 20
357.5
 30
0.0
 40
25.5
  0
ARC
  5
298
330
1F
100
AcDbEntity
  8
LAY-1
  6
CONTINUOUS
 62
     2
100
AcDbCircle
 10
209.9000000000779
 20
340.0000000000019
 30
0.0
 40
1.0
100
AcDbArc
 50
270.0
 51
0.0
  0
LINE
  5
299
330
1F
100
AcDbEntity
  8
LAY-1
  6
CONTINUOUS
 62
     2
100
AcDbLine
 10
210.9000000000783
 20
340.0000000000019
 30
0.0
 11
210.9000000000715
 21
357.5000000000006
 31
0.0
  0
ARC
  5
29A
330
1F
100
AcDbEntity
  8
LAY-1
  6
CONTINUOUS
 62
     2
100
AcDbCircle
 10
209.9000000000779
 20
374.9999999999981
 30
0.0
 40
1.0
100
AcDbArc
 50
0.0
 51
90.00000000000001
  0
LINE
  5
29B
330
1F
100
AcDbEntity
  8
LAY-1
  6
CONTINUOUS
 62
     2
100
AcDbLine
 10
196.4773502692678
 20
339.0
 30
0.0
 11
209.9000000000799
 21
339.0
 31
0.0
  0
LINE
  5
29C
330
1F
100
AcDbEntity
  8
LAY-1
  6
CONTINUOUS
 62
     2
100
AcDbLine
 10
219.9000000000724
 20
357.5
 30
0.0
 11
219.9000000000724
 21
373.5
 31
0.0
  0
LINE
  5
29D
330
1F
100
AcDbEntity
  8
LAY-1
  6
CONTINUOUS
 62
     2
100
AcDbLine
 10
219.9000000000628
 20
373.5
 30
0.0
 11
218.4709376404303
 21
375.975208614068
 31
0.0
  0
LINE
  5
29E
330
1F
100
AcDbEntity
  8
LAY-1
  6
CONTINUOUS
 62
     2
100
AcDbLine
 10
212.9000000000674
 20
375.9752086140697
 30
0.0
 11
218.4709376404298
 21
375.9752086140688
 31
0.0
  0
LINE
  5
29F
330
1F
100
AcDbEntity
  8
LAY-1
  6
CONTINUOUS
 62
     2
100
AcDbLine
 10
219.9000000000628
 20
341.5
 30
0.0
 11
218.4709376404303
 21
339.024791385932
 31
0.0
  0
LINE
  5
2A0
330
1F
100
AcDbEntity
  8
LAY-1
  6
CONTINUOUS
 62
     2
100
AcDbLine
 10
219.9000000000724
 20
357.5
 30
0.0
 11
219.9000000000724
 21
341.5
 31
0.0
  0
LINE
  5
2A1
330
1F
100
AcDbEntity
  8
LAY-1
  6
CONTINUOUS
 62
     2
100
AcDbLine
 10
212.9000000000674
 20
339.0247913859303
 30
0.0
 11
218.4709376404298
 21
339.0247913859312
 31
0.0
  0
ARC
  5
2A2
330
1F
100
AcDbEntity
  8
LAY-1
  6
CONTINUOUS
 62
     2
100
AcDbCircle
 10
189.4505835057405
 20
357.51880493165
 30
0.0
 40
30.44942230109784
100
AcDbArc
 50
342.3766719521315
 51
17.62332804786832
  0
ARC
  5
2A3
330
1F
100
AcDbEntity
  8
LAY-1
  6
CONTINUOUS
 62
     2
100
AcDbCircle
 10
211.7213761841663
 20
371.3564092387001
 30
0.0
 40
8.178623815904086
100
AcDbArc
 50
325.6157330695446
 51
34.38426693045478
  0
LINE
  5
2A4
330
1F
100
AcDbEntity
  8
LAY-1
  6
CONTINUOUS
 62
     2
100
AcDbLine
 10
212.9000000000674
 20
375.975208614068
 30
0.0
 11
212.9000000000674
 21
357.5
 31
0.0
  0
LINE
  5
2A5
330
1F
100
AcDbEntity
  8
LAY-1
  6
CONTINUOUS
 62
     2
100
AcDbLine
 10
212.9000000000674
 20
339.024791385932
 30
0.0
 11
212.9000000000674
 21
357.5
 31
0.0
  0
ARC
  5
2A6
330
1F
100
AcDbEntity
  8
LAY-1
  6
CONTINUOUS
 62
     2
100
AcDbCircle
 10
211.7213761841663
 20
343.6435907612999
 30
0.0
 40
8.178623815904086
100
AcDbArc
 50
325.6157330695453
 51
34.38426693045541
  0
LINE
  5
2A7
330
1F
100
AcDbEntity
  8
LAY-1
  6
CONTINUOUS
 62
     2
100
AcDbLine
 10
218.4709376404298
 20
366.7376098633
 30
0.0
 11
212.9000000000674
 21
366.7376098633
 31
0.0
  0
LINE
  5
2A8
330
1F
100
AcDbEntity
  8
LAY-1
  6
CONTINUOUS
 62
     2
100
AcDbLine
 10
218.4709376404298
 20
348.3
 30
0.0
 11
212.9000000000674
 21
348.3
 31
0.0
  0
LINE
  5
2A9
330
1F
100
AcDbEntity
  8
LAY-1
  6
CONTINUOUS
 62
     2
100
AcDbLine
 10
210.9000000000783
 20
374.9999999999977
 30
0.0
 11
210.9000000000715
 21
357.4999999999994
 31
0.0
  0
LINE
  5
2AA
330
1F
100
AcDbEntity
  8
LAY-1
  6
CONTINUOUS
 62
     2
100
AcDbLine
 10
212.9000000000688
 20
372.5
 30
0.0
 11
210.9000000000774
 21
372.5000000000008
 31
0.0
  0
LINE
  5
2AB
330
1F
100
AcDbEntity
  8
LAY-1
  6
CONTINUOUS
 62
     2
100
AcDbLine
 10
212.9000000000688
 20
342.5
 30
0.0
 11
210.9000000000783
 21
342.4999999999992
 31
0.0
  0
LINE
  5
2AC
330
1F
100
AcDbEntity
  8
LAY-1
  6
CONTINUOUS
 62
     2
100
AcDbLine
 10
224.5339745962999
 20
352.500000000029
 30
0.0
 11
224.5339745962979
 21
357.500000000029
 31
0.0
  0
LINE
  5
2AD
330
1F
100
AcDbEntity
  8
LAY-1
  6
CONTINUOUS
 62
     2
100
AcDbLine
 10
224.5339745962999
 20
352.500000000029
 30
0.0
 11
225.4000000000838
 21
353.000000000029
 31
0.0
  0
LINE
  5
2AE
330
1F
100
AcDbEntity
  8
LAY-1
  6
CONTINUOUS
 62
     2
100
AcDbLine
 10
224.533974596297
 20
362.500000000029
 30
0.0
 11
225.400000000081
 21
362.000000000029
 31
0.0
  0
LINE
  5
2AF
330
1F
100
AcDbEntity
  8
LAY-1
  6
CONTINUOUS
 62
     2
100
AcDbLine
 10
224.533974596297
 20
362.500000000029
 30
0.0
 11
224.5339745962979
 21
357.500000000029
 31
0.0
  0
LINE
  5
2B0
330
1F
100
AcDbEntity
  8
LAY-1
  6
CONTINUOUS
 62
     2
100
AcDbLine
 10
219.9000000000724
 20
362.5000000000171
 30
0.0
 11
224.533974596297
 21
362.500000000029
 31
0.0
  0
LINE
  5
2B1
330
1F
100
AcDbEntity
  8
LAY-1
  6
CONTINUOUS
 62
     2
100
AcDbLine
 10
219.9000000000724
 20
352.5000000000171
 30
0.0
 11
224.5339745962999
 21
352.500000000029
 31
0.0
  0
LINE
  5
2B2
330
1F
100
AcDbEntity
  8
LAY-1
  6
CONTINUOUS
 62
     2
100
AcDbLine
 10
225.4000000001029
 20
357.500000000025
 30
0.0
 11
225.4000000000999
 21
366.6277317427071
 31
0.0
  0
LINE
  5
2B3
330
1F
100
AcDbEntity
  8
LAY-1
  6
CONTINUOUS
 62
     2
100
AcDbLine
 10
232.4000000001129
 20
324.000000000028
 30
0.0
 11
232.400000000112
 21
324.757073584643
 31
0.0
  0
ARC
  5
2B4
330
1F
100
AcDbEntity
  8
LAY-1
  6
CONTINUOUS
 62
     2
100
AcDbCircle
 10
225.5339312527808
 20
369.499999997578
 30
0.0
 40
2.0
100
AcDbArc
 50
286.7795194924764
 51
352.3377443392801
  0
ARC
  5
2B5
330
1F
100
AcDbEntity
  8
LAY-1
  6
CONTINUOUS
 62
     2
100
AcDbCircle
 10
226.4000000000999
 20
366.6277317432339
 30
0.0
 40
1.0
100
AcDbArc
 50
106.7795194924835
 51
180.0
  0
ARC
  5
2B6
330
1F
100
AcDbEntity
  8
LAY-1
  6
CONTINUOUS
 62
     2
100
AcDbCircle
 10
238.9000000001129
 20
324.0000000000289
 30
0.0
 40
6.500000000000004
100
AcDbArc
 50
180.0
 51
0.0
  0
LINE
  5
2B7
330
1F
100
AcDbEntity
  8
LAY-1
  6
CONTINUOUS
 62
     2
100
AcDbLine
 10
245.4000000000929
 20
390.9999999966099
 30
0.0
 11
245.4000000000939
 21
386.4999999977279
 31
0.0
  0
LINE
  5
2B8
330
1F
100
AcDbEntity
  8
LAY-1
  6
CONTINUOUS
 62
     2
100
AcDbLine
 10
225.4000000001029
 20
357.500000000025
 30
0.0
 11
225.4000000001049
 21
348.3722682573439
 31
0.0
  0
ARC
  5
2B9
330
1F
100
AcDbEntity
  8
LAY-1
  6
CONTINUOUS
 62
     2
100
AcDbCircle
 10
225.5339312527879
 20
345.500000002472
 30
0.0
 40
2.0
100
AcDbArc
 50
7.662255660745867
 51
73.22048050752375
  0
ARC
  5
2BA
330
1F
100
AcDbEntity
  8
LAY-1
  6
CONTINUOUS
 62
     2
100
AcDbCircle
 10
226.4000000001049
 20
348.372268256818
 30
0.0
 40
1.0
100
AcDbArc
 50
180.0
 51
253.2204805075165
  0
ARC
  5
2BB
330
1F
100
AcDbEntity
  8
LAY-1
  6
CONTINUOUS
 62
     2
100
AcDbCircle
 10
238.9000000000929
 20
391.0000000000289
 30
0.0
 40
6.500000000000004
100
AcDbArc
 50
0.0
 51
180.0
  0
LINE
  5
2BC
330
1F
100
AcDbEntity
  8
LAY-1
  6
CONTINUOUS
 62
     2
100
AcDbLine
 10
245.4000000000939
 20
387.5000000000318
 30
0.0
 11
245.4000000001026
 21
357.5
 31
0.0
  0
ARC
  5
2BD
330
1F
100
AcDbEntity
  8
LAY-1
  6
CONTINUOUS
 62
     2
100
AcDbCircle
 10
240.4000000000999
 20
367.499999997583
 30
0.0
 40
13.00000000000001
100
AcDbArc
 50
127.9798724448685
 51
172.337744339253
  0
LINE
  5
2BE
330
1F
100
AcDbEntity
  8
LAY-1
  6
CONTINUOUS
 62
     2
100
AcDbLine
 10
232.4000000000929
 20
391.0000000000268
 30
0.0
 11
232.4000000000929
 21
357.5
 31
0.0
  0
ARC
  5
2BF
330
1F
100
AcDbEntity
  8
LAY-1
  6
CONTINUOUS
 62
     2
100
AcDbCircle
 10
240.4000000001058
 20
347.500000002477
 30
0.0
 40
13.00000000000001
100
AcDbArc
 50
187.6622556798172
 51
232.0201275551476
  0
LINE
  5
2C0
330
1F
100
AcDbEntity
  8
LAY-1
  6
CONTINUOUS
 62
     2
100
AcDbLine
 10
232.4000000001129
 20
324.000000000028
 30
0.0
 11
232.4000000001129
 21
357.5
 31
0.0
  0
LINE
  5
2C1
330
1F
100
AcDbEntity
  8
LAY-1
  6
CONTINUOUS
 62
     2
100
AcDbLine
 10
245.4000000001129
 20
324.0000000000289
 30
0.0
 11
245.4000000001031
 21
357.5
 31
0.0
  0
LINE
  5
2C2
330
1F
100
AcDbEntity
  8
LAY-1
  6
CONTINUOUS
 62
     2
100
AcDbLine
 10
227.1573467814999
 20
365.931386830667
 30
0.0
 11
227.1573467814999
 21
366.5899999999999
 31
0.0
  0
LINE
  5
2C3
330
1F
100
AcDbEntity
  8
LAY-1
  6
CONTINUOUS
 62
     2
100
AcDbLine
 10
228.4225227542238
 20
364.0712702620247
 30
0.0
 11
232.4000000000899
 21
362.5
 31
0.0
  0
ARC
  5
2C4
330
1F
100
AcDbEntity
  8
LAY-1
  6
CONTINUOUS
 62
     2
100
AcDbCircle
 10
229.1573467814999
 20
365.931386830667
 30
0.0
 40
2.0
100
AcDbArc
 50
180.0
 51
248.4439022635413
  0
LINE
  5
2C5
330
1F
100
AcDbEntity
  8
LAY-1
  6
CONTINUOUS
 62
     2
100
AcDbLine
 10
227.1573467814999
 20
348.3800000000001
 30
0.0
 11
227.1573467814999
 21
349.068613169333
 31
0.0
  0
LINE
  5
2C6
330
1F
100
AcDbEntity
  8
LAY-1
  6
CONTINUOUS
 62
     2
100
AcDbLine
 10
228.4225227542238
 20
350.9287297379753
 30
0.0
 11
232.4000000000899
 21
352.5
 31
0.0
  0
ARC
  5
2C7
330
1F
100
AcDbEntity
  8
LAY-1
  6
CONTINUOUS
 62
     2
100
AcDbCircle
 10
229.1573467814999
 20
349.068613169333
 30
0.0
 40
2.0
100
AcDbArc
 50
111.5560977364588
 51
180.0
  0
ARC
  5
2C8
330
1F
100
AcDbEntity
  8
LAY-1
  6
CONTINUOUS
 62
     2
100
AcDbCircle
 10
241.9000000001039
 20
357.500000000034
 30
0.0
 40
4.5
100
AcDbArc
 50
321.0575587310019
 51
38.94244126902277
  0
LINE
  5
2C9
330
1F
100
AcDbEntity
  8
LAY-1
  6
EXLTYPE2
 62
     1
100
AcDbLine
 10
250.4000000000799
 20
357.500000000004
 30
0.0
 11
70.223842294228
 21
357.500000000004
 31
0.0
  0
LINE
  5
2CA
330
1F
100
AcDbEntity
  8
LAY-1
  6
CONTINUOUS
 62
     2
100
AcDbLine
 10
130.9000000007238
 20
364.373863542158
 30
0.0
 11
130.8999999994401
 21
350.626136457291
 31
0.0
  0
LINE
  5
2CB
330
1F
100
AcDbEntity
  8
LAY-1
  6
EXLTYPE3
 62
     1
100
AcDbLine
 10
420.000000433182
 20
173.499999999998
 30
0.0
 11
407.000000433175
 21
173.499999999996
 31
0.0
  0
LINE
  5
2CC
330
1F
100
AcDbEntity
  8
LAY-1
  6
EXLTYPE2
 62
     1
100
AcDbLine
 10
305.655420988404
 20
96.00000000000205
 30
0.0
 11
331.6227296821151
 21
96.00000000000205
 31
0.0
  0
LINE
  5
2CD
330
1F
100
AcDbEntity
  8
LAY-1
  6
EXLTYPE2
 62
     1
100
AcDbLine
 10
331.622729682108
 20
166.000000000002
 30
0.0
 11
306.151611600385
 21
165.999999999997
 31
0.0
  0
LINE
  5
2CE
330
1F
100
AcDbEntity
  8
LAY-1
  6
EXLTYPE3
 62
     1
100
AcDbLine
 10
407.000000433176
 20
158.499999999998
 30
0.0
 11
420.000000433184
 21
158.499999999998
 31
0.0
  0
LINE
  5
2CF
330
1F
100
AcDbEntity
  8
LAY-1
  6
EXLTYPE2
 62
     1
100
AcDbLine
 10
400.924018488899
 20
165.999999999997
 30
0.0
 11
426.2297396999691
 21
165.999999999997
 31
0.0
  0
LINE
  5
2D0
330
1F
100
AcDbEntity
  8
LAY-1
  6
EXLTYPE3
 62
     1
100
AcDbLine
 10
407.000000433182
 20
103.499999999999
 30
0.0
 11
420.000000433184
 21
103.499999999999
 31
0.0
  0
LINE
  5
2D1
330
1F
100
AcDbEntity
  8
LAY-1
  6
EXLTYPE2
 62
     1
100
AcDbLine
 10
426.229739699991
 20
96.00000000000205
 30
0.0
 11
399.766240394275
 21
95.99999999999704
 31
0.0
  0
LINE
  5
2D2
330
1F
100
AcDbEntity
  8
LAY-1
  6
EXLTYPE3
 62
     1
100
AcDbLine
 10
420.000000433189
 20
88.50000000000205
 30
0.0
 11
407.000000433183
 21
88.5
 31
0.0
  0
LINE
  5
2D3
330
1F
100
AcDbEntity
  8
LAY-1
  6
EXLTYPE3
 62
     1
100
AcDbLine
 10
312.0000004331839
 20
88.50000000000205
 30
0.0
 11
325.000000433212
 21
88.50000000000205
 31
0.0
  0
LINE
  5
2D4
330
1F
100
AcDbEntity
  8
LAY-1
  6
EXLTYPE3
 62
     1
100
AcDbLine
 10
325.0000004332101
 20
103.500000000002
 30
0.0
 11
312.0000004331839
 21
103.500000000002
 31
0.0
  0
LINE
  5
2D5
330
1F
100
AcDbEntity
  8
LAY-1
  6
EXLTYPE3
 62
     1
100
AcDbLine
 10
325.000000433191
 20
158.499999999998
 30
0.0
 11
312.0000004331839
 21
158.499999999998
 31
0.0
  0
LINE
  5
2D6
330
1F
100
AcDbEntity
  8
LAY-1
  6
EXLTYPE3
 62
     1
100
AcDbLine
 10
312.0000004331839
 20
173.499999999998
 30
0.0
 11
325.000000433186
 21
173.499999999998
 31
0.0
  0
LINE
  5
2D7
330
1F
100
AcDbEntity
  8
LAY-1
  6
CONTINUOUS
 62
     2
100
AcDbLine
 10
404.4960042827699
 20
151.78092872333
 30
0.0
 11
404.4960042827699
 21
110.2190712763388
 31
0.0
  0
LINE
  5
2D8
330
1F
100
AcDbEntity
  8
LAY-1
  6
CONTINUOUS
 62
     2
100
AcDbLine
 10
327.5039957172332
 20
151.780928723331
 30
0.0
 11
327.5039957172321
 21
110.2190712763398
 31
0.0
  0
LINE
  5
2D9
330
1F
100
AcDbEntity
  8
LAY-1
  6
CONTINUOUS
 62
     2
100
AcDbLine
 10
399.3126710968841
 20
115.964660637778
 30
0.0
 11
398.626775990812
 21
116.101839658993
 31
0.0
  0
LINE
  5
2DA
330
1F
100
AcDbEntity
  8
LAY-1
  6
CONTINUOUS
 62
     2
100
AcDbLine
 10
420.000000433184
 20
178.500000000002
 30
0.0
 11
408.500000433174
 21
178.500000000002
 31
0.0
  0
ARC
  5
2DB
330
1F
100
AcDbEntity
  8
LAY-1
  6
CONTINUOUS
 62
     2
100
AcDbCircle
 10
406.000000433181
 20
109.083668825985
 30
0.0
 40
1.0
100
AcDbArc
 50
0.0
 51
84.99999999996103
  0
LINE
  5
2DC
330
1F
100
AcDbEntity
  8
LAY-1
  6
CONTINUOUS
 62
     2
100
AcDbLine
 10
332.687328903118
 20
115.964660637778
 30
0.0
 11
333.3732240091899
 21
116.101839658993
 31
0.0
  0
ARC
  5
2DD
330
1F
100
AcDbEntity
  8
LAY-1
  6
CONTINUOUS
 62
     2
100
AcDbCircle
 10
333.680747748793
 20
109.8576134064569
 30
0.0
 40
6.187318230749002
100
AcDbArc
 50
99.23924290202513
 51
176.6509224875051
  0
ARC
  5
2DE
330
1F
100
AcDbEntity
  8
LAY-1
  6
CONTINUOUS
 62
     2
100
AcDbCircle
 10
334.549920820019
 20
110.218355604847
 30
0.0
 40
6.000000000000004
100
AcDbArc
 50
52.36122920759997
 51
101.3099324742003
  0
ARC
  5
2DF
330
1F
100
AcDbEntity
  8
LAY-1
  6
CONTINUOUS
 62
     2
100
AcDbCircle
 10
397.450079179982
 20
110.218355604847
 30
0.0
 40
6.000000000000004
100
AcDbArc
 50
78.69006752580017
 51
127.6387707924004
  0
ARC
  5
2E0
330
1F
100
AcDbEntity
  8
LAY-1
  6
CONTINUOUS
 62
     2
100
AcDbCircle
 10
398.3192526843879
 20
109.85761287805
 30
0.0
 40
6.187318682742
100
AcDbArc
 50
3.349082178588038
 51
80.76076184290798
  0
ARC
  5
2E1
330
1F
100
AcDbEntity
  8
LAY-1
  6
CONTINUOUS
 62
     2
100
AcDbCircle
 10
398.3192526844
 20
152.142387121894
 30
0.0
 40
6.187318682742
100
AcDbArc
 50
279.2392381567219
 51
356.650917822122
  0
LINE
  5
2E2
330
1F
100
AcDbEntity
  8
LAY-1
  6
CONTINUOUS
 62
     2
100
AcDbLine
 10
332.687328903118
 20
146.035339362167
 30
0.0
 11
333.373224009129
 21
145.898160340965
 31
0.0
  0
ARC
  5
2E3
330
1F
100
AcDbEntity
  8
LAY-1
  6
CONTINUOUS
 62
     2
100
AcDbCircle
 10
326.0000004332051
 20
109.083668825985
 30
0.0
 40
1.0
100
AcDbArc
 50
95.00000000004233
 51
180.0
  0
LINE
  5
2E4
330
1F
100
AcDbEntity
  8
LAY-1
  6
CONTINUOUS
 62
     2
100
AcDbLine
 10
404.4960042827649
 20
151.780928723325
 30
0.0
 11
406.087156175925
 21
151.920136475924
 31
0.0
  0
ARC
  5
2E5
330
1F
100
AcDbEntity
  8
LAY-1
  6
CONTINUOUS
 62
     2
100
AcDbCircle
 10
323.500000433213
 20
85.00000000000296
 30
0.0
 40
1.5
100
AcDbArc
 50
270.0
 51
0.0
  0
LINE
  5
2E6
330
1F
100
AcDbEntity
  8
LAY-1
  6
CONTINUOUS
 62
     2
100
AcDbLine
 10
312.0000004331839
 20
178.500000000002
 30
0.0
 11
323.5000004331839
 21
178.500000000002
 31
0.0
  0
ARC
  5
2E7
330
1F
100
AcDbEntity
  8
LAY-1
  6
CONTINUOUS
 62
     2
100
AcDbCircle
 10
397.450079180044
 20
151.78164439511
 30
0.0
 40
6.000000000000004
100
AcDbArc
 50
232.3612292076006
 51
281.3099324738405
  0
ARC
  5
2E8
330
1F
100
AcDbEntity
  8
LAY-1
  6
CONTINUOUS
 62
     2
100
AcDbCircle
 10
333.680747748792
 20
152.142386593491
 30
0.0
 40
6.187318230748002
100
AcDbArc
 50
183.3490775121449
 51
260.7607570979851
  0
ARC
  5
2E9
330
1F
100
AcDbEntity
  8
LAY-1
  6
CONTINUOUS
 62
     2
100
AcDbCircle
 10
334.5499208199581
 20
151.78164439511
 30
0.0
 40
6.000000000000004
100
AcDbArc
 50
258.6900675257997
 51
307.6387707924002
  0
LINE
  5
2EA
330
1F
100
AcDbEntity
  8
LAY-1
  6
CONTINUOUS
 62
     2
100
AcDbLine
 10
312.0000004331839
 20
83.50000000000205
 30
0.0
 11
323.500000433213
 21
83.50000000000296
 31
0.0
  0
ARC
  5
2EB
330
1F
100
AcDbEntity
  8
LAY-1
  6
CONTINUOUS
 62
     2
100
AcDbCircle
 10
406.000000433177
 20
152.916331174016
 30
0.0
 40
1.0
100
AcDbArc
 50
275.000000000039
 51
0.0
  0
LINE
  5
2EC
330
1F
100
AcDbEntity
  8
LAY-1
  6
CONTINUOUS
 62
     2
100
AcDbLine
 10
399.3126710968841
 20
146.035339362167
 30
0.0
 11
398.6267759908731
 21
145.898160340965
 31
0.0
  0
LINE
  5
2ED
330
1F
100
AcDbEntity
  8
LAY-1
  6
CONTINUOUS
 62
     2
100
AcDbLine
 10
420.000000433184
 20
83.50000000000205
 30
0.0
 11
408.500000433184
 21
83.50000000000205
 31
0.0
  0
ARC
  5
2EE
330
1F
100
AcDbEntity
  8
LAY-1
  6
CONTINUOUS
 62
     2
100
AcDbCircle
 10
326.000000433192
 20
152.916331174016
 30
0.0
 40
1.0
100
AcDbArc
 50
180.0
 51
264.9999999999609
  0
ARC
  5
2EF
330
1F
100
AcDbEntity
  8
LAY-1
  6
CONTINUOUS
 62
     2
100
AcDbCircle
 10
323.5000004331839
 20
177.000000000002
 30
0.0
 40
1.5
100
AcDbArc
 50
0.0
 51
90.00000000000001
  0
ARC
  5
2F0
330
1F
100
AcDbEntity
  8
LAY-1
  6
CONTINUOUS
 62
     2
100
AcDbCircle
 10
366.0000000000009
 20
151.000000000003
 30
0.0
 40
45.5
100
AcDbArc
 50
232.3612292076002
 51
307.6387707924002
  0
ARC
  5
2F1
330
1F
100
AcDbEntity
  8
LAY-1
  6
CONTINUOUS
 62
     2
100
AcDbCircle
 10
408.500000433174
 20
177.000000000002
 30
0.0
 40
1.5
100
AcDbArc
 50
90.00000000000001
 51
180.0
  0
ARC
  5
2F2
330
1F
100
AcDbEntity
  8
LAY-1
  6
CONTINUOUS
 62
     2
100
AcDbCircle
 10
408.500000433184
 20
85.00000000000205
 30
0.0
 40
1.5
100
AcDbArc
 50
180.0
 51
270.0
  0
LINE
  5
2F3
330
1F
100
AcDbEntity
  8
LAY-1
  6
CONTINUOUS
 62
     2
100
AcDbLine
 10
325.912844690458
 20
110.079863524077
 30
0.0
 11
327.501289553035
 21
110.218834442188
 31
0.0
  0
LINE
  5
2F4
330
1F
100
AcDbEntity
  8
LAY-1
  6
CONTINUOUS
 62
     2
100
AcDbLine
 10
404.4960042827499
 20
110.2190712766781
 30
0.0
 11
406.0871561759291
 21
110.079863524077
 31
0.0
  0
LINE
  5
2F5
330
1F
100
AcDbEntity
  8
LAY-1
  6
CONTINUOUS
 62
     2
100
AcDbLine
 10
325.912844690444
 20
151.920136475924
 30
0.0
 11
327.503996572214
 21
151.780928724321
 31
0.0
  0
ARC
  5
2F6
330
1F
100
AcDbEntity
  8
LAY-1
  6
CONTINUOUS
 62
     2
100
AcDbCircle
 10
311.0000004331839
 20
157.5000000000019
 30
0.0
 40
1.0
100
AcDbArc
 50
270.0
 51
0.0
  0
LINE
  5
2F7
330
1F
100
AcDbEntity
  8
LAY-1
  6
CONTINUOUS
 62
     2
100
AcDbLine
 10
311.0000004331839
 20
156.5000000000019
 30
0.0
 11
311.000000433184
 21
131.000000000002
 31
0.0
  0
LINE
  5
2F8
330
1F
100
AcDbEntity
  8
LAY-1
  6
CONTINUOUS
 62
     2
100
AcDbLine
 10
311.0000004331839
 20
105.5000000000001
 30
0.0
 11
311.000000433184
 21
131.0
 31
0.0
  0
ARC
  5
2F9
330
1F
100
AcDbEntity
  8
LAY-1
  6
CONTINUOUS
 62
     2
100
AcDbCircle
 10
311.0000004331839
 20
104.5000000000001
 30
0.0
 40
1.0
100
AcDbArc
 50
0.0
 51
90.00000000000001
  0
ARC
  5
2FA
330
1F
100
AcDbEntity
  8
LAY-1
  6
CONTINUOUS
 62
     2
100
AcDbCircle
 10
420.9999995668179
 20
157.5000000000019
 30
0.0
 40
1.0
100
AcDbArc
 50
180.0
 51
270.0
  0
LINE
  5
2FB
330
1F
100
AcDbEntity
  8
LAY-1
  6
CONTINUOUS
 62
     2
100
AcDbLine
 10
420.9999995668179
 20
156.5000000000019
 30
0.0
 11
420.9999995668179
 21
131.000000000002
 31
0.0
  0
LINE
  5
2FC
330
1F
100
AcDbEntity
  8
LAY-1
  6
CONTINUOUS
 62
     2
100
AcDbLine
 10
420.9999995668179
 20
105.5000000000001
 30
0.0
 11
420.9999995668179
 21
131.0
 31
0.0
  0
ARC
  5
2FD
330
1F
100
AcDbEntity
  8
LAY-1
  6
CONTINUOUS
 62
     2
100
AcDbCircle
 10
420.9999995668179
 20
104.5000000000001
 30
0.0
 40
1.0
100
AcDbArc
 50
90.00000000000001
 51
180.0
  0
ARC
  5
2FE
330
1F
100
AcDbEntity
  8
LAY-1
  6
CONTINUOUS
 62
     2
100
AcDbCircle
 10
387.0000000000008
 20
165.4999999999991
 30
0.0
 40
1.5
100
AcDbArc
 50
311.8103148957581
 51
0.0
  0
ARC
  5
2FF
330
1F
100
AcDbEntity
  8
LAY-1
  6
CONTINUOUS
 62
     2
100
AcDbCircle
 10
389.0
 20
163.2639320224986
 30
0.0
 40
1.5
100
AcDbArc
 50
131.8103148957581
 51
180.0
  0
LINE
  5
300
330
1F
100
AcDbEntity
  8
LAY-1
  6
CONTINUOUS
 62
     2
100
AcDbLine
 10
366.0000000000009
 20
176.000000000002
 30
0.0
 11
387.0000000000009
 21
176.0000000000031
 31
0.0
  0
LINE
  5
301
330
1F
100
AcDbEntity
  8
LAY-1
  6
CONTINUOUS
 62
     2
100
AcDbLine
 10
388.5000000000009
 20
174.5000000000031
 30
0.0
 11
388.5000000000008
 21
165.4999999999991
 31
0.0
  0
ARC
  5
302
330
1F
100
AcDbEntity
  8
LAY-1
  6
CONTINUOUS
 62
     2
100
AcDbCircle
 10
387.0000000000009
 20
174.5000000000031
 30
0.0
 40
1.5
100
AcDbArc
 50
0.0
 51
90.00000000000001
  0
LINE
  5
303
330
1F
100
AcDbEntity
  8
LAY-1
  6
CONTINUOUS
 62
     2
100
AcDbLine
 10
387.5
 20
163.2639320224986
 30
0.0
 11
387.5
 21
154.5430821141581
 31
0.0
  0
ARC
  5
304
330
1F
100
AcDbEntity
  8
LAY-1
  6
CONTINUOUS
 62
     2
100
AcDbCircle
 10
366.0000000000009
 20
111.000000000003
 30
0.0
 40
45.5
100
AcDbArc
 50
52.36122920759986
 51
57.72519658613974
  0
ARC
  5
305
330
1F
100
AcDbEntity
  8
LAY-1
  6
CONTINUOUS
 62
     2
100
AcDbCircle
 10
393.5
 20
154.5430821141581
 30
0.0
 40
6.000000000000002
100
AcDbArc
 50
180.0
 51
237.7251965861398
  0
ARC
  5
306
330
1F
100
AcDbEntity
  8
LAY-1
  6
CONTINUOUS
 62
     2
100
AcDbCircle
 10
345.0000000000025
 20
165.4999999999991
 30
0.0
 40
1.5
100
AcDbArc
 50
180.0
 51
228.189685104242
  0
ARC
  5
307
330
1F
100
AcDbEntity
  8
LAY-1
  6
CONTINUOUS
 62
     2
100
AcDbCircle
 10
343.0000000000033
 20
163.2639320224986
 30
0.0
 40
1.5
100
AcDbArc
 50
0.0
 51
48.1896851042419
  0
LINE
  5
308
330
1F
100
AcDbEntity
  8
LAY-1
  6
CONTINUOUS
 62
     2
100
AcDbLine
 10
343.5000000000024
 20
174.5000000000031
 30
0.0
 11
343.5000000000025
 21
165.4999999999991
 31
0.0
  0
ARC
  5
309
330
1F
100
AcDbEntity
  8
LAY-1
  6
CONTINUOUS
 62
     2
100
AcDbCircle
 10
345.0000000000024
 20
174.5000000000031
 30
0.0
 40
1.5
100
AcDbArc
 50
90.00000000000001
 51
180.0
  0
LINE
  5
30A
330
1F
100
AcDbEntity
  8
LAY-1
  6
CONTINUOUS
 62
     2
100
AcDbLine
 10
344.5000000000033
 20
163.2639320224986
 30
0.0
 11
344.5000000000033
 21
154.5430821141581
 31
0.0
  0
ARC
  5
30B
330
1F
100
AcDbEntity
  8
LAY-1
  6
CONTINUOUS
 62
     2
100
AcDbCircle
 10
338.5000000000033
 20
154.5430821141581
 30
0.0
 40
6.000000000000004
100
AcDbArc
 50
302.2748034138606
 51
0.0
  0
ARC
  5
30C
330
1F
100
AcDbEntity
  8
LAY-1
  6
CONTINUOUS
 62
     2
100
AcDbCircle
 10
366.0000000000009
 20
111.000000000003
 30
0.0
 40
45.5
100
AcDbArc
 50
122.274803413859
 51
127.6387707923999
  0
LINE
  5
30D
330
1F
100
AcDbEntity
  8
LAY-1
  6
CONTINUOUS
 62
     2
100
AcDbLine
 10
366.0000000000009
 20
176.000000000002
 30
0.0
 11
345.0
 21
176.0000000000031
 31
0.0
  0
LINE
  5
30E
330
1F
100
AcDbEntity
  8
LAY-1
  6
CONTINUOUS
 62
     2
100
AcDbLine
 10
420.000000433184
 20
178.500000000002
 30
0.0
 11
420.0000004331837
 21
131.0000000000012
 31
0.0
  0
LINE
  5
30F
330
1F
100
AcDbEntity
  8
LAY-1
  6
CONTINUOUS
 62
     2
100
AcDbLine
 10
420.0000004331843
 20
131.0000000000012
 30
0.0
 11
420.000000433184
 21
83.50000000000205
 31
0.0
  0
LINE
  5
310
330
1F
100
AcDbEntity
  8
LAY-1
  6
CONTINUOUS
 62
     2
100
AcDbLine
 10
312.0000004331841
 20
131.000000000002
 30
0.0
 11
312.0000004331839
 21
83.50000000000205
 31
0.0
  0
LINE
  5
311
330
1F
100
AcDbEntity
  8
LAY-1
  6
CONTINUOUS
 62
     2
100
AcDbLine
 10
312.0000004331839
 20
178.500000000002
 30
0.0
 11
312.0000004331836
 21
131.000000000002
 31
0.0
  0
LINE
  5
312
330
1F
100
AcDbEntity
  8
LAY-1
  6
CONTINUOUS
 62
     2
100
AcDbLine
 10
325.0000004331839
 20
177.000000000002
 30
0.0
 11
325.0000004331836
 21
131.0000000000019
 31
0.0
  0
LINE
  5
313
330
1F
100
AcDbEntity
  8
LAY-1
  6
CONTINUOUS
 62
     2
100
AcDbLine
 10
325.0000004332052
 20
131.0000000000019
 30
0.0
 11
325.000000433213
 21
85.00000000000296
 31
0.0
  0
LINE
  5
314
330
1F
100
AcDbEntity
  8
LAY-1
  6
CONTINUOUS
 62
     2
100
AcDbLine
 10
407.000000433184
 20
85.00000000000205
 30
0.0
 11
407.0000004331844
 21
131.0000000000013
 31
0.0
  0
LINE
  5
315
330
1F
100
AcDbEntity
  8
LAY-1
  6
CONTINUOUS
 62
     2
100
AcDbLine
 10
407.0000004331796
 20
131.0000000000013
 30
0.0
 11
407.000000433174
 21
177.000000000002
 31
0.0
  0
TEXT
  5
316
330
1F
100
AcDbEntity
  8
LAY-1
  6
CONTINUOUS
 62
     4
100
AcDbText
 10
377.6803520270387
 20
135.5708664002029
 30
0.0
 40
6.2362208
  1
S
 41
0.5390287417695546
  7
EXCADSTD
 72
     5
 11
380.4015681351701
 21
135.5708664002029
 31
0.0
100
AcDbText
  0
TEXT
  5
317
330
1F
100
AcDbEntity
  8
LAY-1
  6
CONTINUOUS
 62
     4
100
AcDbText
 10
364.6803520270389
 20
135.5708664002029
 30
0.0
 40
6.2362208
  1
D
 41
0.5090827005601348
  7
EXCADSTD
 72
     5
 11
367.4015681351702
 21
135.5708664002029
 31
0.0
100
AcDbText
  0
TEXT
  5
318
330
1F
100
AcDbEntity
  8
LAY-1
  6
CONTINUOUS
 62
     4
100
AcDbText
 10
357.6803520270389
 20
135.5708664002029
 30
0.0
 40
6.2362208
  1
C
 41
0.5090827005601348
  7
EXCADSTD
 72
     5
 11
360.4015681351702
 21
135.5708664002029
 31
0.0
100
AcDbText
  0
TEXT
  5
319
330
1F
100
AcDbEntity
  8
LAY-1
  6
CONTINUOUS
 62
     4
100
AcDbText
 10
350.6803520270389
 20
135.5708664002029
 30
0.0
 40
6.2362208
  1
F
 41
0.5390287417695546
  7
EXCADSTD
 72
     5
 11
353.4015681351702
 21
135.5708664002029
 31
0.0
100
AcDbText
  0
TEXT
  5
31A
330
1F
100
AcDbEntity
  8
LAY-1
  6
CONTINUOUS
 62
     4
100
AcDbText
 10
370.6803520270387
 20
125.5708664002029
 30
0.0
 40
6.2362208
  1
1
 41
0.8330444190984024
  7
EXCADSTD
 72
     5
 11
373.4015681351701
 21
125.5708664002029
 31
0.0
100
AcDbText
  0
TEXT
  5
31B
330
1F
100
AcDbEntity
  8
LAY-1
  6
CONTINUOUS
 62
     4
100
AcDbText
 10
377.6803520270387
 20
125.5708664002029
 30
0.0
 40
6.2362208
  1
5
 41
0.5390287417695546
  7
EXCADSTD
 72
     5
 11
380.4015681351701
 21
125.5708664002029
 31
0.0
100
AcDbText
  0
TEXT
  5
31C
330
1F
100
AcDbEntity
  8
LAY-1
  6
CONTINUOUS
 62
     4
100
AcDbText
 10
357.6803520270389
 20
125.5708664002029
 30
0.0
 40
6.2362208
  1
0
 41
0.5390287417695546
  7
EXCADSTD
 72
     5
 11
360.4015681351702
 21
125.5708664002029
 31
0.0
100
AcDbText
  0
TEXT
  5
31D
330
1F
100
AcDbEntity
  8
LAY-1
  6
CONTINUOUS
 62
     4
100
AcDbText
 10
350.6803520270389
 20
125.5708664002029
 30
0.0
 40
6.2362208
  1
2
 41
0.5390287417695546
  7
EXCADSTD
 72
     5
 11
353.4015681351702
 21
125.5708664002029
 31
0.0
100
AcDbText
  0
LINE
  5
31E
330
1F
100
AcDbEntity
  8
LAY-1
  6
CONTINUOUS
 62
     4
100
AcDbLine
 10
371.000000000004
 20
138.5000000002029
 30
0.0
 11
375.000000000004
 21
138.5000000002029
 31
0.0
  0
TEXT
  5
31F
330
1F
100
AcDbEntity
  8
LAY-1
  6
CONTINUOUS
 62
     4
100
AcDbText
 10
365.0901760135214
 20
129.0354332002029
 30
0.0
 40
3.1181104
  1
K
 41
0.5090827005601455
  7
EXCADSTD
 72
     5
 11
366.4507840675871
 21
129.0354332002029
 31
0.0
100
AcDbText
  0
LINE
  5
320
330
1F
100
AcDbEntity
  8
LAY-1
  6
CONTINUOUS
 62
     4
100
AcDbLine
 10
364.750000000004
 20
125.5000000002029
 30
0.0
 11
367.250000000004
 21
125.5000000002029
 31
0.0
  0
LINE
  5
321
330
1F
100
AcDbEntity
  8
LAY-1
  6
CONTINUOUS
 62
     2
100
AcDbLine
 10
384.000000000004
 20
143.5000000002029
 30
0.0
 11
348.0000000000041
 21
143.5000000002029
 31
0.0
  0
LINE
  5
322
330
1F
100
AcDbEntity
  8
LAY-1
  6
CONTINUOUS
 62
     2
100
AcDbLine
 10
384.000000000004
 20
118.5000000002029
 30
0.0
 11
384.000000000004
 21
143.5000000002029
 31
0.0
  0
LINE
  5
323
330
1F
100
AcDbEntity
  8
LAY-1
  6
CONTINUOUS
 62
     2
100
AcDbLine
 10
348.0000000000041
 20
118.5000000002029
 30
0.0
 11
384.000000000004
 21
118.5000000002029
 31
0.0
  0
LINE
  5
324
330
1F
100
AcDbEntity
  8
LAY-1
  6
CONTINUOUS
 62
     2
100
AcDbLine
 10
348.0000000000041
 20
143.5000000002029
 30
0.0
 11
348.0000000000041
 21
118.5000000002029
 31
0.0
  0
LINE
  5
325
330
1F
100
AcDbEntity
  8
LAY-1
  6
CONTINUOUS
 62
     2
100
AcDbLine
 10
382.000000000004
 20
122.5000000002029
 30
0.0
 11
353.0000000000041
 21
122.5000000002029
 31
0.0
  0
LINE
  5
326
330
1F
100
AcDbEntity
  8
LAY-1
  6
CONTINUOUS
 62
     2
100
AcDbLine
 10
353.0000000000041
 20
122.5000000002029
 30
0.0
 11
350.0000000000041
 21
119.5000000002029
 31
0.0
  0
LINE
  5
327
330
1F
100
AcDbEntity
  8
LAY-1
  6
CONTINUOUS
 62
     2
100
AcDbLine
 10
350.0000000000041
 20
119.5000000002029
 30
0.0
 11
359.5000000000041
 21
119.5000000002029
 31
0.0
  0
LINE
  5
328
330
1F
100
AcDbEntity
  8
LAY-1
  6
CONTINUOUS
 62
     2
100
AcDbLine
 10
359.5000000000041
 20
119.5000000002029
 30
0.0
 11
361.5000000000041
 21
121.5000000002029
 31
0.0
  0
LINE
  5
329
330
1F
100
AcDbEntity
  8
LAY-1
  6
CONTINUOUS
 62
     2
100
AcDbLine
 10
361.5000000000041
 20
121.5000000002029
 30
0.0
 11
377.000000000004
 21
121.5000000002029
 31
0.0
  0
LINE
  5
32A
330
1F
100
AcDbEntity
  8
LAY-1
  6
CONTINUOUS
 62
     2
100
AcDbLine
 10
377.000000000004
 20
121.5000000002029
 30
0.0
 11
377.000000000004
 21
119.5000000002029
 31
0.0
  0
LINE
  5
32B
330
1F
100
AcDbEntity
  8
LAY-1
  6
CONTINUOUS
 62
     2
100
AcDbLine
 10
377.000000000004
 20
119.5000000002029
 30
0.0
 11
382.000000000004
 21
122.5000000002029
 31
0.0
  0
LINE
  5
32C
330
1F
100
AcDbEntity
  8
LAY-1
  6
CONTINUOUS
 62
     2
100
AcDbLine
 10
344.0
 20
164.38196601125
 30
0.0
 11
388.000000000001
 21
164.3819660112493
 31
0.0
  0
ARC
  5
32D
330
1F
100
AcDbEntity
  8
LAY-1
  6
CONTINUOUS
 62
     2
100
AcDbCircle
 10
348.5000000000019
 20
212.999999999998
 30
0.0
 40
1.0
100
AcDbArc
 50
90.00000000000001
 51
180.0
  0
LINE
  5
32E
330
1F
100
AcDbEntity
  8
LAY-1
  6
CONTINUOUS
 62
     2
100
AcDbLine
 10
348.5000000000019
 20
213.9999999999984
 30
0.0
 11
366.0000000000006
 21
213.9999999999915
 31
0.0
  0
ARC
  5
32F
330
1F
100
AcDbEntity
  8
LAY-1
  6
CONTINUOUS
 62
     2
100
AcDbCircle
 10
383.4999999999981
 20
212.999999999998
 30
0.0
 40
1.0
100
AcDbArc
 50
0.0
 51
90.00000000000001
  0
LINE
  5
330
330
1F
100
AcDbEntity
  8
LAY-1
  6
CONTINUOUS
 62
     2
100
AcDbLine
 10
384.5
 20
199.57735026919
 30
0.0
 11
384.5
 21
213.0
 31
0.0
  0
LINE
  5
331
330
1F
100
AcDbEntity
  8
LAY-1
  6
CONTINUOUS
 62
     2
100
AcDbLine
 10
366.0
 20
175.999999999997
 30
0.0
 11
384.999999999996
 21
175.999999999998
 31
0.0
  0
LINE
  5
332
330
1F
100
AcDbEntity
  8
LAY-1
  6
CONTINUOUS
 62
     2
100
AcDbLine
 10
366.0
 20
175.999999999997
 30
0.0
 11
347.000000000004
 21
175.999999999998
 31
0.0
  0
LINE
  5
333
330
1F
100
AcDbEntity
  8
LAY-1
  6
CONTINUOUS
 62
     2
100
AcDbLine
 10
347.5
 20
199.577350269188
 30
0.0
 11
347.5
 21
213.0
 31
0.0
  0
LINE
  5
334
330
1F
100
AcDbEntity
  8
LAY-1
  6
CONTINUOUS
 62
     2
100
AcDbLine
 10
366.0
 20
222.9999999999925
 30
0.0
 11
382.0
 21
222.9999999999925
 31
0.0
  0
LINE
  5
335
330
1F
100
AcDbEntity
  8
LAY-1
  6
CONTINUOUS
 62
     2
100
AcDbLine
 10
382.0
 20
222.9999999999829
 30
0.0
 11
384.475208614068
 21
221.5709376403503
 31
0.0
  0
LINE
  5
336
330
1F
100
AcDbEntity
  8
LAY-1
  6
CONTINUOUS
 62
     2
100
AcDbLine
 10
384.4752086140697
 20
215.9999999999874
 30
0.0
 11
384.4752086140688
 21
221.5709376403498
 31
0.0
  0
LINE
  5
337
330
1F
100
AcDbEntity
  8
LAY-1
  6
CONTINUOUS
 62
     2
100
AcDbLine
 10
350.0
 20
222.9999999999829
 30
0.0
 11
347.524791385932
 21
221.5709376403503
 31
0.0
  0
LINE
  5
338
330
1F
100
AcDbEntity
  8
LAY-1
  6
CONTINUOUS
 62
     2
100
AcDbLine
 10
366.0
 20
222.9999999999925
 30
0.0
 11
350.0
 21
222.9999999999925
 31
0.0
  0
LINE
  5
339
330
1F
100
AcDbEntity
  8
LAY-1
  6
CONTINUOUS
 62
     2
100
AcDbLine
 10
347.5247913859303
 20
215.9999999999874
 30
0.0
 11
347.5247913859312
 21
221.5709376403498
 31
0.0
  0
ARC
  5
33A
330
1F
100
AcDbEntity
  8
LAY-1
  6
CONTINUOUS
 62
     2
100
AcDbCircle
 10
366.01880493165
 20
192.5505835056606
 30
0.0
 40
30.44942230109784
100
AcDbArc
 50
72.37667195213164
 51
107.6233280478686
  0
ARC
  5
33B
330
1F
100
AcDbEntity
  8
LAY-1
  6
CONTINUOUS
 62
     2
100
AcDbCircle
 10
379.8564092387001
 20
214.8213761840864
 30
0.0
 40
8.178623815904086
100
AcDbArc
 50
55.61573306954524
 51
124.3842669304554
  0
LINE
  5
33C
330
1F
100
AcDbEntity
  8
LAY-1
  6
CONTINUOUS
 62
     2
100
AcDbLine
 10
384.475208614068
 20
215.9999999999874
 30
0.0
 11
366.0
 21
215.9999999999874
 31
0.0
  0
LINE
  5
33D
330
1F
100
AcDbEntity
  8
LAY-1
  6
CONTINUOUS
 62
     2
100
AcDbLine
 10
347.524791385932
 20
215.9999999999874
 30
0.0
 11
366.0
 21
215.9999999999874
 31
0.0
  0
ARC
  5
33E
330
1F
100
AcDbEntity
  8
LAY-1
  6
CONTINUOUS
 62
     2
100
AcDbCircle
 10
352.1435907612999
 20
214.8213761840864
 30
0.0
 40
8.178623815904086
100
AcDbArc
 50
55.61573306954455
 51
124.3842669304548
  0
LINE
  5
33F
330
1F
100
AcDbEntity
  8
LAY-1
  6
CONTINUOUS
 62
     2
100
AcDbLine
 10
375.2376098633
 20
221.5709376403499
 30
0.0
 11
375.2376098633
 21
215.9999999999874
 31
0.0
  0
LINE
  5
340
330
1F
100
AcDbEntity
  8
LAY-1
  6
CONTINUOUS
 62
     2
100
AcDbLine
 10
356.8
 20
221.5709376403499
 30
0.0
 11
356.8
 21
215.9999999999874
 31
0.0
  0
LINE
  5
341
330
1F
100
AcDbEntity
  8
LAY-1
  6
CONTINUOUS
 62
     2
100
AcDbLine
 10
383.4999999999977
 20
213.9999999999984
 30
0.0
 11
365.9999999999994
 21
213.9999999999915
 31
0.0
  0
LINE
  5
342
330
1F
100
AcDbEntity
  8
LAY-1
  6
CONTINUOUS
 62
     2
100
AcDbLine
 10
381.0
 20
215.999999999989
 30
0.0
 11
381.0000000000008
 21
213.9999999999974
 31
0.0
  0
LINE
  5
343
330
1F
100
AcDbEntity
  8
LAY-1
  6
CONTINUOUS
 62
     2
100
AcDbLine
 10
351.0
 20
215.999999999989
 30
0.0
 11
350.9999999999992
 21
213.9999999999984
 31
0.0
  0
LINE
  5
344
330
1F
100
AcDbEntity
  8
LAY-1
  6
CONTINUOUS
 62
     2
100
AcDbLine
 10
361.000000000029
 20
227.63397459622
 30
0.0
 11
366.000000000029
 21
227.633974596218
 31
0.0
  0
LINE
  5
345
330
1F
100
AcDbEntity
  8
LAY-1
  6
CONTINUOUS
 62
     2
100
AcDbLine
 10
361.000000000029
 20
227.63397459622
 30
0.0
 11
361.500000000029
 21
228.500000000004
 31
0.0
  0
LINE
  5
346
330
1F
100
AcDbEntity
  8
LAY-1
  6
CONTINUOUS
 62
     2
100
AcDbLine
 10
371.000000000029
 20
227.6339745962169
 30
0.0
 11
370.500000000029
 21
228.500000000001
 31
0.0
  0
LINE
  5
347
330
1F
100
AcDbEntity
  8
LAY-1
  6
CONTINUOUS
 62
     2
100
AcDbLine
 10
371.000000000029
 20
227.6339745962169
 30
0.0
 11
366.000000000029
 21
227.633974596218
 31
0.0
  0
LINE
  5
348
330
1F
100
AcDbEntity
  8
LAY-1
  6
CONTINUOUS
 62
     2
100
AcDbLine
 10
371.0000000000171
 20
222.9999999999925
 30
0.0
 11
371.000000000029
 21
227.6339745962169
 31
0.0
  0
LINE
  5
349
330
1F
100
AcDbEntity
  8
LAY-1
  6
CONTINUOUS
 62
     2
100
AcDbLine
 10
361.0000000000171
 20
222.9999999999925
 30
0.0
 11
361.000000000029
 21
227.63397459622
 31
0.0
  0
LINE
  5
34A
330
1F
100
AcDbEntity
  8
LAY-1
  6
CONTINUOUS
 62
     2
100
AcDbLine
 10
366.000000000025
 20
228.500000000023
 30
0.0
 11
375.1277317427071
 21
228.50000000002
 31
0.0
  0
LINE
  5
34B
330
1F
100
AcDbEntity
  8
LAY-1
  6
CONTINUOUS
 62
     2
100
AcDbLine
 10
332.500000000028
 20
235.500000000033
 30
0.0
 11
333.257073584643
 21
235.500000000032
 31
0.0
  0
ARC
  5
34C
330
1F
100
AcDbEntity
  8
LAY-1
  6
CONTINUOUS
 62
     2
100
AcDbCircle
 10
377.999999997578
 20
228.633931252701
 30
0.0
 40
2.0
100
AcDbArc
 50
97.66225566072045
 51
163.2204805075203
  0
ARC
  5
34D
330
1F
100
AcDbEntity
  8
LAY-1
  6
CONTINUOUS
 62
     2
100
AcDbCircle
 10
375.1277317432339
 20
229.50000000002
 30
0.0
 40
1.0
100
AcDbArc
 50
270.0000000000002
 51
343.2204805075203
  0
ARC
  5
34E
330
1F
100
AcDbEntity
  8
LAY-1
  6
CONTINUOUS
 62
     2
100
AcDbCircle
 10
332.5000000000289
 20
242.000000000033
 30
0.0
 40
6.500000000000004
100
AcDbArc
 50
90.00000000000001
 51
270.0000000000002
  0
LINE
  5
34F
330
1F
100
AcDbEntity
  8
LAY-1
  6
CONTINUOUS
 62
     2
100
AcDbLine
 10
399.4999999966099
 20
248.500000000013
 30
0.0
 11
394.9999999977279
 21
248.500000000014
 31
0.0
  0
LINE
  5
350
330
1F
100
AcDbEntity
  8
LAY-1
  6
CONTINUOUS
 62
     2
100
AcDbLine
 10
366.000000000025
 20
228.500000000023
 30
0.0
 11
356.8722682573439
 21
228.500000000025
 31
0.0
  0
ARC
  5
351
330
1F
100
AcDbEntity
  8
LAY-1
  6
CONTINUOUS
 62
     2
100
AcDbCircle
 10
354.000000002472
 20
228.633931252708
 30
0.0
 40
2.0
100
AcDbArc
 50
16.7795194924772
 51
82.33774433925244
  0
ARC
  5
352
330
1F
100
AcDbEntity
  8
LAY-1
  6
CONTINUOUS
 62
     2
100
AcDbCircle
 10
356.872268256818
 20
229.500000000025
 30
0.0
 40
1.0
100
AcDbArc
 50
196.7795194924796
 51
270.0000000000002
  0
ARC
  5
353
330
1F
100
AcDbEntity
  8
LAY-1
  6
CONTINUOUS
 62
     2
100
AcDbCircle
 10
399.5000000000289
 20
242.000000000013
 30
0.0
 40
6.500000000000004
100
AcDbArc
 50
270.0000000000002
 51
90.00000000000001
  0
LINE
  5
354
330
1F
100
AcDbEntity
  8
LAY-1
  6
CONTINUOUS
 62
     2
100
AcDbLine
 10
396.0000000000318
 20
248.500000000014
 30
0.0
 11
366.0
 21
248.5000000000228
 31
0.0
  0
ARC
  5
355
330
1F
100
AcDbEntity
  8
LAY-1
  6
CONTINUOUS
 62
     2
100
AcDbCircle
 10
375.999999997583
 20
243.50000000002
 30
0.0
 40
13.00000000000001
100
AcDbArc
 50
277.662255660747
 51
322.0201275551314
  0
LINE
  5
356
330
1F
100
AcDbEntity
  8
LAY-1
  6
CONTINUOUS
 62
     2
100
AcDbLine
 10
399.5000000000268
 20
235.500000000013
 30
0.0
 11
366.0
 21
235.500000000013
 31
0.0
  0
ARC
  5
357
330
1F
100
AcDbEntity
  8
LAY-1
  6
CONTINUOUS
 62
     2
100
AcDbCircle
 10
356.000000002477
 20
243.500000000026
 30
0.0
 40
13.00000000000001
100
AcDbArc
 50
217.9798724448524
 51
262.3377443201828
  0
LINE
  5
358
330
1F
100
AcDbEntity
  8
LAY-1
  6
CONTINUOUS
 62
     2
100
AcDbLine
 10
332.500000000028
 20
235.500000000033
 30
0.0
 11
366.0
 21
235.500000000033
 31
0.0
  0
LINE
  5
359
330
1F
100
AcDbEntity
  8
LAY-1
  6
CONTINUOUS
 62
     2
100
AcDbLine
 10
332.5000000000289
 20
248.500000000033
 30
0.0
 11
366.0
 21
248.5000000000231
 31
0.0
  0
LINE
  5
35A
330
1F
100
AcDbEntity
  8
LAY-1
  6
CONTINUOUS
 62
     2
100
AcDbLine
 10
374.431386830667
 20
230.25734678142
 30
0.0
 11
375.0899999999999
 21
230.25734678142
 31
0.0
  0
LINE
  5
35B
330
1F
100
AcDbEntity
  8
LAY-1
  6
CONTINUOUS
 62
     2
100
AcDbLine
 10
372.5712702620247
 20
231.5225227541438
 30
0.0
 11
371.0
 21
235.50000000001
 31
0.0
  0
ARC
  5
35C
330
1F
100
AcDbEntity
  8
LAY-1
  6
CONTINUOUS
 62
     2
100
AcDbCircle
 10
374.431386830667
 20
232.25734678142
 30
0.0
 40
2.0
100
AcDbArc
 50
201.5560977364618
 51
270.0
  0
LINE
  5
35D
330
1F
100
AcDbEntity
  8
LAY-1
  6
CONTINUOUS
 62
     2
100
AcDbLine
 10
356.8800000000001
 20
230.25734678142
 30
0.0
 11
357.568613169333
 21
230.25734678142
 31
0.0
  0
LINE
  5
35E
330
1F
100
AcDbEntity
  8
LAY-1
  6
CONTINUOUS
 62
     2
100
AcDbLine
 10
359.4287297379753
 20
231.5225227541438
 30
0.0
 11
361.0
 21
235.50000000001
 31
0.0
  0
ARC
  5
35F
330
1F
100
AcDbEntity
  8
LAY-1
  6
CONTINUOUS
 62
     2
100
AcDbCircle
 10
357.568613169333
 20
232.25734678142
 30
0.0
 40
2.0
100
AcDbArc
 50
270.0
 51
338.4439022635382
  0
LINE
  5
360
330
1F
100
AcDbEntity
  8
LAY-1
  6
EXLTYPE2
 62
     1
100
AcDbLine
 10
366.0000000000009
 20
99.72836326855497
 30
0.0
 11
366.0000000000028
 21
254.8000000000008
 31
0.0
  0
LINE
  5
361
330
1F
100
AcDbEntity
  8
LAY-1
  6
EXLTYPE2
 62
     1
100
AcDbLine
 10
427.4000000000001
 20
131.0000000000011
 30
0.0
 11
305.994861852167
 21
131.000000000002
 31
0.0
  0
ARC
  5
362
330
1F
100
AcDbEntity
  8
LAY-1
  6
CONTINUOUS
 62
     2
100
AcDbCircle
 10
366.000000000034
 20
245.000000000024
 30
0.0
 40
4.5
100
AcDbArc
 50
51.05755873097727
 51
128.9424412689986
  0
LINE
  5
363
330
1F
100
AcDbEntity
  8
LAY-1
  6
CONTINUOUS
 62
     2
100
AcDbLine
 10
366.000000000001
 20
176.0000000000021
 30
0.0
 11
387.000000000001
 21
176.0000000000031
 31
0.0
  0
ARC
  5
364
330
1F
100
AcDbEntity
  8
LAY-1
  6
CONTINUOUS
 62
     2
100
AcDbCircle
 10
387.000000000001
 20
174.5000000000031
 30
0.0
 40
1.5
100
AcDbArc
 50
0.0
 51
90.00000000000001
  0
ARC
  5
365
330
1F
100
AcDbEntity
  8
LAY-1
  6
CONTINUOUS
 62
     2
100
AcDbCircle
 10
345.0000000000024
 20
174.5000000000031
 30
0.0
 40
1.5
100
AcDbArc
 50
90.00000000000001
 51
180.0
  0
LINE
  5
366
330
1F
100
AcDbEntity
  8
LAY-1
  6
CONTINUOUS
 62
     2
100
AcDbLine
 10
366.000000000001
 20
176.0000000000021
 30
0.0
 11
345.0000000000001
 21
176.0000000000031
 31
0.0
  0
LINE
  5
367
330
1F
100
AcDbEntity
  8
LAY-1
  6
CONTINUOUS
 62
     2
100
AcDbLine
 10
366.0000000000001
 20
175.9999999999971
 30
0.0
 11
384.999999999996
 21
175.999999999998
 31
0.0
  0
LINE
  5
368
330
1F
100
AcDbEntity
  8
LAY-1
  6
CONTINUOUS
 62
     2
100
AcDbLine
 10
366.0000000000001
 20
175.9999999999971
 30
0.0
 11
347.000000000004
 21
175.999999999998
 31
0.0
  0
ARC
  5
369
330
1F
100
AcDbEntity
  8
LAY-1
  6
CONTINUOUS
 62
     2
100
AcDbCircle
 10
346.50000000001
 20
199.577350269198
 30
0.0
 40
1.0
100
AcDbArc
 50
299.9999999998765
 51
0.0
  0
ARC
  5
36A
330
1F
100
AcDbEntity
  8
LAY-1
  6
CONTINUOUS
 62
     2
100
AcDbCircle
 10
385.5000000000101
 20
199.577350269198
 30
0.0
 40
1.0
100
AcDbArc
 50
180.0
 51
240.0000000001236
  0
LINE
  5
36B
330
1F
100
AcDbEntity
  8
LAY-1
  6
CONTINUOUS
 62
     2
100
AcDbLine
 10
385.0000000000114
 20
198.7113248654123
 30
0.0
 11
388.500000000006
 21
196.6905989232536
 31
0.0
  0
LINE
  5
36C
330
1F
100
AcDbEntity
  8
LAY-1
  6
CONTINUOUS
 62
     2
100
AcDbLine
 10
388.500000000006
 20
178.0207259421736
 30
0.0
 11
385.000000000006
 21
176.000000000008
 31
0.0
  0
LINE
  5
36D
330
1F
100
AcDbEntity
  8
LAY-1
  6
CONTINUOUS
 62
     2
100
AcDbLine
 10
388.500000000006
 20
196.6905989232536
 30
0.0
 11
388.500000000006
 21
178.0207259421736
 31
0.0
  0
LINE
  5
36E
330
1F
100
AcDbEntity
  8
LAY-1
  6
CONTINUOUS
 62
     2
100
AcDbLine
 10
343.500000000014
 20
196.6905989232536
 30
0.0
 11
343.500000000014
 21
178.0207259421736
 31
0.0
  0
LINE
  5
36F
330
1F
100
AcDbEntity
  8
LAY-1
  6
CONTINUOUS
 62
     2
100
AcDbLine
 10
343.5000000000156
 20
178.0207259421727
 30
0.0
 11
347.000000000014
 21
176.000000000008
 31
0.0
  0
LINE
  5
370
330
1F
100
AcDbEntity
  8
LAY-1
  6
CONTINUOUS
 62
     2
100
AcDbLine
 10
366.00000000001
 20
176.000000000007
 30
0.0
 11
385.000000000006
 21
176.000000000008
 31
0.0
  0
LINE
  5
371
330
1F
100
AcDbEntity
  8
LAY-1
  6
CONTINUOUS
 62
     2
100
AcDbLine
 10
366.00000000001
 20
176.0000000000047
 30
0.0
 11
347.000000000014
 21
176.000000000008
 31
0.0
  0
LINE
  5
372
330
1F
100
AcDbEntity
  8
LAY-1
  6
CONTINUOUS
 62
     2
100
AcDbLine
 10
347.0000000000099
 20
198.711324865413
 30
0.0
 11
343.5000000000168
 21
196.6905989232552
 31
0.0
  0
LINE
  5
373
330
1F
100
AcDbEntity
  8
LAY-1
  6
CONTINUOUS
 62
     2
100
AcDbLine
 10
348.03000000001
 20
199.000000000008
 30
0.0
 11
366.00000000001
 21
199.000000000008
 31
0.0
  0
LINE
  5
374
330
1F
100
AcDbEntity
  8
LAY-1
  6
CONTINUOUS
 62
     2
100
AcDbLine
 10
383.97000000001
 20
199.000000000008
 30
0.0
 11
366.00000000001
 21
199.000000000008
 31
0.0
  0
ARC
  5
375
330
1F
100
AcDbEntity
  8
LAY-1
  6
CONTINUOUS
 62
     2
100
AcDbCircle
 10
348.8321597408101
 20
190.6684667163161
 30
0.0
 40
8.04350693536392
100
AcDbArc
 50
59.75808697457089
 51
108.4774477795275
  0
ARC
  5
376
330
1F
100
AcDbEntity
  8
LAY-1
  6
CONTINUOUS
 62
     2
100
AcDbCircle
 10
348.83215974081
 20
184.0428581491119
 30
0.0
 40
8.04350693536392
100
AcDbArc
 50
251.5225522204725
 51
300.2419130254301
  0
LINE
  5
377
330
1F
100
AcDbEntity
  8
LAY-1
  6
CONTINUOUS
 62
     2
100
AcDbLine
 10
356.72638150451
 20
197.4848119572715
 30
0.0
 11
356.72638150451
 21
177.2265129081565
 31
0.0
  0
LINE
  5
378
330
1F
100
AcDbEntity
  8
LAY-1
  6
CONTINUOUS
 62
     2
100
AcDbLine
 10
352.88328847018
 20
197.6173054565173
 30
0.0
 11
352.88328847018
 21
177.0940194089108
 31
0.0
  0
LINE
  5
379
330
1F
100
AcDbEntity
  8
LAY-1
  6
CONTINUOUS
 62
     2
100
AcDbLine
 10
352.88328847018
 20
197.617305456517
 30
0.0
 11
356.72638150451
 21
197.484811957271
 31
0.0
  0
LINE
  5
37A
330
1F
100
AcDbEntity
  8
LAY-1
  6
CONTINUOUS
 62
     2
100
AcDbLine
 10
352.88328847018
 20
177.094019408911
 30
0.0
 11
356.72638150451
 21
177.226512908156
 31
0.0
  0
LINE
  5
37B
330
1F
100
AcDbEntity
  8
LAY-1
  6
CONTINUOUS
 62
     2
100
AcDbLine
 10
375.27361849551
 20
197.4848119572715
 30
0.0
 11
375.2736184955099
 21
177.2265129081565
 31
0.0
  0
LINE
  5
37C
330
1F
100
AcDbEntity
  8
LAY-1
  6
CONTINUOUS
 62
     2
100
AcDbLine
 10
379.11671152984
 20
197.6173054565173
 30
0.0
 11
379.1167115298399
 21
177.0940194089108
 31
0.0
  0
LINE
  5
37D
330
1F
100
AcDbEntity
  8
LAY-1
  6
CONTINUOUS
 62
     2
100
AcDbLine
 10
379.11671152984
 20
197.617305456517
 30
0.0
 11
375.27361849551
 21
197.484811957271
 31
0.0
  0
LINE
  5
37E
330
1F
100
AcDbEntity
  8
LAY-1
  6
CONTINUOUS
 62
     2
100
AcDbLine
 10
379.1167115298399
 20
177.094019408911
 30
0.0
 11
375.2736184955099
 21
177.226512908156
 31
0.0
  0
ARC
  5
37F
330
1F
100
AcDbEntity
  8
LAY-1
  6
CONTINUOUS
 62
     2
100
AcDbCircle
 10
383.16784025921
 20
190.6684667163161
 30
0.0
 40
8.04350693536392
100
AcDbArc
 50
71.52255222047248
 51
120.2419130254337
  0
ARC
  5
380
330
1F
100
AcDbEntity
  8
LAY-1
  6
CONTINUOUS
 62
     2
100
AcDbCircle
 10
366.0000000000101
 20
163.0393260904719
 30
0.0
 40
35.67199877494907
100
AcDbArc
 50
74.9317695488541
 51
105.0682304511432
  0
ARC
  5
381
330
1F
100
AcDbEntity
  8
LAY-1
  6
CONTINUOUS
 62
     2
100
AcDbCircle
 10
366.00000000001
 20
211.671998774956
 30
0.0
 40
35.67199877494907
100
AcDbArc
 50
254.9317695488569
 51
285.068230451143
  0
ARC
  5
382
330
1F
100
AcDbEntity
  8
LAY-1
  6
CONTINUOUS
 62
     2
100
AcDbCircle
 10
383.1678402592099
 20
184.0428581491119
 30
0.0
 40
8.04350693536392
100
AcDbArc
 50
239.7580869745662
 51
288.4774477795275
  0
LINE
  5
383
330
1F
100
AcDbEntity
  8
LAY-1
  6
CONTINUOUS
 62
     2
100
AcDbLine
 10
366.0000000000091
 20
508.000000000008
 30
0.0
 11
345.0000000000091
 21
508.0000000000069
 31
0.0
  0
ARC
  5
384
330
1F
100
AcDbEntity
  8
LAY-1
  6
CONTINUOUS
 62
     2
100
AcDbCircle
 10
345.0000000000091
 20
509.5000000000069
 30
0.0
 40
1.5
100
AcDbArc
 50
180.0
 51
270.0
  0
ARC
  5
385
330
1F
100
AcDbEntity
  8
LAY-1
  6
CONTINUOUS
 62
     2
100
AcDbCircle
 10
387.0000000000077
 20
509.5000000000069
 30
0.0
 40
1.5
100
AcDbArc
 50
270.0
 51
0.0
  0
LINE
  5
386
330
1F
100
AcDbEntity
  8
LAY-1
  6
CONTINUOUS
 62
     2
100
AcDbLine
 10
366.0000000000091
 20
508.000000000008
 30
0.0
 11
387.00000000001
 21
508.0000000000069
 31
0.0
  0
LINE
  5
387
330
1F
100
AcDbEntity
  8
LAY-1
  6
CONTINUOUS
 62
     2
100
AcDbLine
 10
366.00000000001
 20
508.000000000013
 30
0.0
 11
347.0000000000141
 21
508.000000000012
 31
0.0
  0
LINE
  5
388
330
1F
100
AcDbEntity
  8
LAY-1
  6
CONTINUOUS
 62
     2
100
AcDbLine
 10
366.00000000001
 20
508.000000000013
 30
0.0
 11
385.0000000000061
 21
508.0000000000119
 31
0.0
  0
ARC
  5
389
330
1F
100
AcDbEntity
  8
LAY-1
  6
CONTINUOUS
 62
     2
100
AcDbCircle
 10
385.5
 20
484.4226497308121
 30
0.0
 40
1.0
100
AcDbArc
 50
119.9999999998765
 51
180.0
  0
ARC
  5
38A
330
1F
100
AcDbEntity
  8
LAY-1
  6
CONTINUOUS
 62
     2
100
AcDbCircle
 10
346.5
 20
484.4226497308121
 30
0.0
 40
1.0
100
AcDbArc
 50
0.0
 51
60.00000000012361
  0
LINE
  5
38B
330
1F
100
AcDbEntity
  8
LAY-1
  6
CONTINUOUS
 62
     2
100
AcDbLine
 10
346.9999999999987
 20
485.2886751345977
 30
0.0
 11
343.500000000004
 21
487.3094010767564
 31
0.0
  0
LINE
  5
38C
330
1F
100
AcDbEntity
  8
LAY-1
  6
CONTINUOUS
 62
     2
100
AcDbLine
 10
343.500000000004
 20
505.9792740578364
 30
0.0
 11
347.000000000004
 21
508.000000000002
 31
0.0
  0
LINE
  5
38D
330
1F
100
AcDbEntity
  8
LAY-1
  6
CONTINUOUS
 62
     2
100
AcDbLine
 10
343.500000000004
 20
487.3094010767564
 30
0.0
 11
343.500000000004
 21
505.9792740578364
 31
0.0
  0
LINE
  5
38E
330
1F
100
AcDbEntity
  8
LAY-1
  6
CONTINUOUS
 62
     2
100
AcDbLine
 10
388.499999999996
 20
487.3094010767564
 30
0.0
 11
388.499999999996
 21
505.9792740578364
 31
0.0
  0
LINE
  5
38F
330
1F
100
AcDbEntity
  8
LAY-1
  6
CONTINUOUS
 62
     2
100
AcDbLine
 10
388.4999999999944
 20
505.9792740578373
 30
0.0
 11
384.999999999996
 21
508.000000000002
 31
0.0
  0
LINE
  5
390
330
1F
100
AcDbEntity
  8
LAY-1
  6
CONTINUOUS
 62
     2
100
AcDbLine
 10
366.0000000000001
 20
508.000000000003
 30
0.0
 11
347.000000000004
 21
508.000000000002
 31
0.0
  0
LINE
  5
391
330
1F
100
AcDbEntity
  8
LAY-1
  6
CONTINUOUS
 62
     2
100
AcDbLine
 10
366.0000000000001
 20
508.0000000000053
 30
0.0
 11
384.999999999996
 21
508.000000000002
 31
0.0
  0
LINE
  5
392
330
1F
100
AcDbEntity
  8
LAY-1
  6
CONTINUOUS
 62
     2
100
AcDbLine
 10
385.0000000000001
 20
485.288675134597
 30
0.0
 11
388.4999999999932
 21
487.3094010767549
 31
0.0
  0
LINE
  5
393
330
1F
100
AcDbEntity
  8
LAY-1
  6
CONTINUOUS
 62
     2
100
AcDbLine
 10
383.97
 20
485.000000000002
 30
0.0
 11
366.0000000000001
 21
485.000000000002
 31
0.0
  0
LINE
  5
394
330
1F
100
AcDbEntity
  8
LAY-1
  6
CONTINUOUS
 62
     2
100
AcDbLine
 10
348.0300000000001
 20
485.000000000002
 30
0.0
 11
366.0000000000001
 21
485.000000000002
 31
0.0
  0
ARC
  5
395
330
1F
100
AcDbEntity
  8
LAY-1
  6
CONTINUOUS
 62
     2
100
AcDbCircle
 10
383.1678402591999
 20
493.3315332836939
 30
0.0
 40
8.04350693536392
100
AcDbArc
 50
239.7580869745709
 51
288.4774477795275
  0
ARC
  5
396
330
1F
100
AcDbEntity
  8
LAY-1
  6
CONTINUOUS
 62
     2
100
AcDbCircle
 10
383.1678402592
 20
499.9571418508981
 30
0.0
 40
8.04350693536392
100
AcDbArc
 50
71.52255222047248
 51
120.2419130254301
  0
LINE
  5
397
330
1F
100
AcDbEntity
  8
LAY-1
  6
CONTINUOUS
 62
     2
100
AcDbLine
 10
375.2736184955
 20
486.5151880427385
 30
0.0
 11
375.2736184955
 21
506.7734870918536
 31
0.0
  0
LINE
  5
398
330
1F
100
AcDbEntity
  8
LAY-1
  6
CONTINUOUS
 62
     2
100
AcDbLine
 10
379.11671152983
 20
486.3826945434927
 30
0.0
 11
379.11671152983
 21
506.9059805910993
 31
0.0
  0
LINE
  5
399
330
1F
100
AcDbEntity
  8
LAY-1
  6
CONTINUOUS
 62
     2
100
AcDbLine
 10
379.11671152983
 20
486.382694543493
 30
0.0
 11
375.2736184955
 21
486.515188042739
 31
0.0
  0
LINE
  5
39A
330
1F
100
AcDbEntity
  8
LAY-1
  6
CONTINUOUS
 62
     2
100
AcDbLine
 10
379.11671152983
 20
506.905980591099
 30
0.0
 11
375.2736184955
 21
506.773487091854
 31
0.0
  0
LINE
  5
39B
330
1F
100
AcDbEntity
  8
LAY-1
  6
CONTINUOUS
 62
     2
100
AcDbLine
 10
356.7263815045001
 20
486.5151880427385
 30
0.0
 11
356.7263815045001
 21
506.7734870918536
 31
0.0
  0
LINE
  5
39C
330
1F
100
AcDbEntity
  8
LAY-1
  6
CONTINUOUS
 62
     2
100
AcDbLine
 10
352.8832884701701
 20
486.3826945434927
 30
0.0
 11
352.8832884701702
 21
506.9059805910993
 31
0.0
  0
LINE
  5
39D
330
1F
100
AcDbEntity
  8
LAY-1
  6
CONTINUOUS
 62
     2
100
AcDbLine
 10
352.8832884701701
 20
486.382694543493
 30
0.0
 11
356.7263815045001
 21
486.515188042739
 31
0.0
  0
LINE
  5
39E
330
1F
100
AcDbEntity
  8
LAY-1
  6
CONTINUOUS
 62
     2
100
AcDbLine
 10
352.8832884701702
 20
506.905980591099
 30
0.0
 11
356.7263815045001
 21
506.773487091854
 31
0.0
  0
ARC
  5
39F
330
1F
100
AcDbEntity
  8
LAY-1
  6
CONTINUOUS
 62
     2
100
AcDbCircle
 10
348.8321597408
 20
493.3315332836939
 30
0.0
 40
8.04350693536392
100
AcDbArc
 50
251.5225522204725
 51
300.2419130254337
  0
ARC
  5
3A0
330
1F
100
AcDbEntity
  8
LAY-1
  6
CONTINUOUS
 62
     2
100
AcDbCircle
 10
366.0
 20
520.9606739095381
 30
0.0
 40
35.67199877494907
100
AcDbArc
 50
254.9317695488541
 51
285.0682304511433
  0
ARC
  5
3A1
330
1F
100
AcDbEntity
  8
LAY-1
  6
CONTINUOUS
 62
     2
100
AcDbCircle
 10
366.0000000000001
 20
472.328001225054
 30
0.0
 40
35.67199877494907
100
AcDbArc
 50
74.93176954885696
 51
105.068230451143
  0
ARC
  5
3A2
330
1F
100
AcDbEntity
  8
LAY-1
  6
CONTINUOUS
 62
     2
100
AcDbCircle
 10
348.8321597408001
 20
499.9571418508981
 30
0.0
 40
8.04350693536392
100
AcDbArc
 50
59.75808697456625
 51
108.4774477795275
  0
ARC
  5
3A3
330
1F
100
AcDbEntity
  8
LAY-1
  6
CONTINUOUS
 62
     2
100
AcDbCircle
 10
560.888675134498
 20
378.500000000015
 30
0.0
 40
1.5
100
AcDbArc
 50
90.00000000000001
 51
180.0000000000001
  0
ARC
  5
3A4
330
1F
100
AcDbEntity
  8
LAY-1
  6
CONTINUOUS
 62
     2
100
AcDbCircle
 10
560.888675134498
 20
336.5000000000132
 30
0.0
 40
1.5
100
AcDbArc
 50
180.0000000000001
 51
270.0
  0
ARC
  5
3A5
330
1F
100
AcDbEntity
  8
LAY-1
  6
CONTINUOUS
 62
     2
100
AcDbCircle
 10
535.8113248653821
 20
338.0
 30
0.0
 40
1.0
100
AcDbArc
 50
29.99999999987648
 51
90.00000000000001
  0
ARC
  5
3A6
330
1F
100
AcDbEntity
  8
LAY-1
  6
CONTINUOUS
 62
     2
100
AcDbCircle
 10
535.8113248653822
 20
377.0
 30
0.0
 40
1.0
100
AcDbArc
 50
270.0
 51
330.0000000001235
  0
LINE
  5
3A7
330
1F
100
AcDbEntity
  8
LAY-1
  6
CONTINUOUS
 62
     2
100
AcDbLine
 10
536.6773502691678
 20
376.5000000000014
 30
0.0
 11
538.6980762113266
 21
379.999999999996
 31
0.0
  0
LINE
  5
3A8
330
1F
100
AcDbEntity
  8
LAY-1
  6
CONTINUOUS
 62
     2
100
AcDbLine
 10
557.3679491924065
 20
379.999999999996
 30
0.0
 11
559.3886751345722
 21
376.499999999996
 31
0.0
  0
LINE
  5
3A9
330
1F
100
AcDbEntity
  8
LAY-1
  6
CONTINUOUS
 62
     2
100
AcDbLine
 10
538.6980762113266
 20
379.999999999996
 30
0.0
 11
557.3679491924065
 21
379.999999999996
 31
0.0
  0
LINE
  5
3AA
330
1F
100
AcDbEntity
  8
LAY-1
  6
CONTINUOUS
 62
     2
100
AcDbLine
 10
538.6980762113265
 20
335.0000000000041
 30
0.0
 11
557.3679491924065
 21
335.0000000000041
 31
0.0
  0
LINE
  5
3AB
330
1F
100
AcDbEntity
  8
LAY-1
  6
CONTINUOUS
 62
     2
100
AcDbLine
 10
557.3679491924074
 20
335.0000000000056
 30
0.0
 11
559.3886751345722
 21
338.500000000004
 31
0.0
  0
LINE
  5
3AC
330
1F
100
AcDbEntity
  8
LAY-1
  6
CONTINUOUS
 62
     2
100
AcDbLine
 10
536.677350269167
 20
338.4999999999999
 30
0.0
 11
538.6980762113249
 21
335.0000000000068
 31
0.0
  0
LINE
  5
3AD
330
1F
100
AcDbEntity
  8
LAY-1
  6
CONTINUOUS
 62
     2
100
AcDbLine
 10
536.3886751345719
 20
339.53
 30
0.0
 11
536.3886751345719
 21
357.5
 31
0.0
  0
LINE
  5
3AE
330
1F
100
AcDbEntity
  8
LAY-1
  6
CONTINUOUS
 62
     2
100
AcDbLine
 10
536.388675134572
 20
375.47
 30
0.0
 11
536.3886751345719
 21
357.5
 31
0.0
  0
ARC
  5
3AF
330
1F
100
AcDbEntity
  8
LAY-1
  6
CONTINUOUS
 62
     2
100
AcDbCircle
 10
544.720208418264
 20
340.3321597408001
 30
0.0
 40
8.04350693536392
100
AcDbArc
 50
149.7580869745709
 51
198.4774477795275
  0
LINE
  5
3B0
330
1F
100
AcDbEntity
  8
LAY-1
  6
CONTINUOUS
 62
     2
100
AcDbLine
 10
537.7713696780627
 20
344.3832884701701
 30
0.0
 11
558.2946557256694
 21
344.3832884701701
 31
0.0
  0
LINE
  5
3B1
330
1F
100
AcDbEntity
  8
LAY-1
  6
CONTINUOUS
 62
     2
100
AcDbLine
 10
537.771369678063
 20
344.3832884701701
 30
0.0
 11
537.903863177309
 21
348.2263815045001
 31
0.0
  0
LINE
  5
3B2
330
1F
100
AcDbEntity
  8
LAY-1
  6
CONTINUOUS
 62
     2
100
AcDbLine
 10
537.7713696780628
 20
370.6167115298299
 30
0.0
 11
558.2946557256694
 21
370.6167115298299
 31
0.0
  0
LINE
  5
3B3
330
1F
100
AcDbEntity
  8
LAY-1
  6
CONTINUOUS
 62
     2
100
AcDbLine
 10
537.7713696780631
 20
370.6167115298299
 30
0.0
 11
537.9038631773091
 21
366.7736184954999
 31
0.0
  0
ARC
  5
3B4
330
1F
100
AcDbEntity
  8
LAY-1
  6
CONTINUOUS
 62
     2
100
AcDbCircle
 10
544.7202084182641
 20
374.6678402592
 30
0.0
 40
8.04350693536392
100
AcDbArc
 50
161.5225522204725
 51
210.2419130254338
  0
ARC
  5
3B5
330
1F
100
AcDbEntity
  8
LAY-1
  6
CONTINUOUS
 62
     2
100
AcDbCircle
 10
572.3493490441081
 20
357.5
 30
0.0
 40
35.67199877494907
100
AcDbArc
 50
164.9317695488541
 51
195.0682304511433
  0
ARC
  5
3B6
330
1F
100
AcDbEntity
  8
LAY-1
  6
CONTINUOUS
 62
     2
100
AcDbCircle
 10
159.6506509559719
 20
357.5
 30
0.0
 40
35.67199877494907
100
AcDbArc
 50
344.9317695488541
 51
15.06823045114323
  0
ARC
  5
3B7
330
1F
100
AcDbEntity
  8
LAY-1
  6
CONTINUOUS
 62
     2
100
AcDbCircle
 10
187.279791581816
 20
340.3321597408
 30
0.0
 40
8.04350693536392
100
AcDbArc
 50
341.5225522204725
 51
30.24191302543372
  0
LINE
  5
3B8
330
1F
100
AcDbEntity
  8
LAY-1
  6
CONTINUOUS
 62
     2
100
AcDbLine
 10
194.228630322017
 20
344.3832884701701
 30
0.0
 11
194.096136822771
 21
348.2263815045001
 31
0.0
  0
LINE
  5
3B9
330
1F
100
AcDbEntity
  8
LAY-1
  6
CONTINUOUS
 62
     2
100
AcDbLine
 10
194.2286303220173
 20
344.3832884701701
 30
0.0
 11
173.7053442744107
 21
344.3832884701701
 31
0.0
  0
LINE
  5
3BA
330
1F
100
AcDbEntity
  8
LAY-1
  6
CONTINUOUS
 62
     2
100
AcDbLine
 10
194.228630322017
 20
370.6167115298299
 30
0.0
 11
194.096136822771
 21
366.7736184954999
 31
0.0
  0
LINE
  5
3BB
330
1F
100
AcDbEntity
  8
LAY-1
  6
CONTINUOUS
 62
     2
100
AcDbLine
 10
194.2286303220173
 20
370.6167115298299
 30
0.0
 11
173.7053442744107
 21
370.6167115298299
 31
0.0
  0
ARC
  5
3BC
330
1F
100
AcDbEntity
  8
LAY-1
  6
CONTINUOUS
 62
     2
100
AcDbCircle
 10
187.279791581816
 20
374.6678402591999
 30
0.0
 40
8.04350693536392
100
AcDbArc
 50
329.7580869745709
 51
18.47744777952749
  0
LINE
  5
3BD
330
1F
100
AcDbEntity
  8
LAY-1
  6
CONTINUOUS
 62
     2
100
AcDbLine
 10
195.611324865508
 20
339.53
 30
0.0
 11
195.611324865508
 21
357.5
 31
0.0
  0
LINE
  5
3BE
330
1F
100
AcDbEntity
  8
LAY-1
  6
CONTINUOUS
 62
     2
100
AcDbLine
 10
195.611324865508
 20
375.47
 30
0.0
 11
195.611324865508
 21
357.5
 31
0.0
  0
LINE
  5
3BF
330
1F
100
AcDbEntity
  8
LAY-1
  6
CONTINUOUS
 62
     2
100
AcDbLine
 10
195.3226497309129
 20
376.5000000000001
 30
0.0
 11
193.3019237887551
 21
379.9999999999932
 31
0.0
  0
LINE
  5
3C0
330
1F
100
AcDbEntity
  8
LAY-1
  6
CONTINUOUS
 62
     2
100
AcDbLine
 10
174.6320508076727
 20
379.9999999999944
 30
0.0
 11
172.6113248655079
 21
376.499999999996
 31
0.0
  0
LINE
  5
3C1
330
1F
100
AcDbEntity
  8
LAY-1
  6
CONTINUOUS
 62
     2
100
AcDbLine
 10
193.3019237887535
 20
379.9999999999959
 30
0.0
 11
174.6320508076736
 21
379.9999999999959
 31
0.0
  0
LINE
  5
3C2
330
1F
100
AcDbEntity
  8
LAY-1
  6
CONTINUOUS
 62
     2
100
AcDbLine
 10
193.3019237887535
 20
335.000000000004
 30
0.0
 11
174.6320508076736
 21
335.000000000004
 31
0.0
  0
LINE
  5
3C3
330
1F
100
AcDbEntity
  8
LAY-1
  6
CONTINUOUS
 62
     2
100
AcDbLine
 10
174.6320508076736
 20
335.000000000004
 30
0.0
 11
172.6113248655079
 21
338.500000000004
 31
0.0
  0
LINE
  5
3C4
330
1F
100
AcDbEntity
  8
LAY-1
  6
CONTINUOUS
 62
     2
100
AcDbLine
 10
195.3226497309122
 20
338.4999999999986
 30
0.0
 11
193.3019237887535
 21
335.000000000004
 31
0.0
  0
ARC
  5
3C5
330
1F
100
AcDbEntity
  8
LAY-1
  6
CONTINUOUS
 62
     2
100
AcDbCircle
 10
196.1886751346979
 20
338.0
 30
0.0
 40
1.0
100
AcDbArc
 50
90.00000000000001
 51
150.0000000001236
  0
ARC
  5
3C6
330
1F
100
AcDbEntity
  8
LAY-1
  6
CONTINUOUS
 62
     2
100
AcDbCircle
 10
196.1886751346979
 20
377.0
 30
0.0
 40
1.0
100
AcDbArc
 50
209.9999999998764
 51
270.0
  0
ARC
  5
3C7
330
1F
100
AcDbEntity
  8
LAY-1
  6
CONTINUOUS
 62
     2
100
AcDbCircle
 10
171.1113248655819
 20
378.4999999999868
 30
0.0
 40
1.5
100
AcDbArc
 50
0.0000000000001146
 51
90.00000000000001
  0
ARC
  5
3C8
330
1F
100
AcDbEntity
  8
LAY-1
  6
CONTINUOUS
 62
     2
100
AcDbCircle
 10
171.1113248655819
 20
336.499999999985
 30
0.0
 40
1.5
100
AcDbArc
 50
270.0
 51
0.0000000000001146
  0
LINE
  5
3C9
330
1F
100
AcDbEntity
  8
LAY-1
  6
CONTINUOUS
 62
     2
100
AcDbLine
 10
195.6113248655099
 20
376.1835034190711
 30
0.0
 11
195.6113248655099
 21
357.5
 31
0.0
  0
LINE
  5
3CA
330
1F
100
AcDbEntity
  8
LAY-1
  6
CONTINUOUS
 62
     2
100
AcDbLine
 10
196.1886751347
 20
376.0
 30
0.0
 11
209.9000000000799
 21
376.0
 31
0.0
  0
LINE
  5
3CB
330
1F
100
AcDbEntity
  8
LAY-1
  6
CONTINUOUS
 62
     2
100
AcDbLine
 10
195.6113248655099
 20
338.8164965809289
 30
0.0
 11
195.6113248655099
 21
357.5
 31
0.0
  0
LINE
  5
3CC
330
1F
100
AcDbEntity
  8
LAY-1
  6
CONTINUOUS
 62
     2
100
AcDbLine
 10
173.7053442744109
 20
344.3832884701701
 30
0.0
 11
173.7267287033928
 21
345.0035630536887
 31
0.0
  0
LINE
  5
3CD
330
1F
100
AcDbEntity
  8
LAY-1
  6
CONTINUOUS
 62
     2
100
AcDbLine
 10
172.6113248655078
 20
341.4641829401085
 30
0.0
 11
172.6113248655079
 21
338.500000000004
 31
0.0
  0
LINE
  5
3CE
330
1F
100
AcDbEntity
  8
LAY-1
  6
CONTINUOUS
 62
     2
100
AcDbLine
 10
171.11132486558
 20
334.99999999998
 30
0.0
 11
169.7330013267738
 21
334.99999999998
 31
0.0
  0
LINE
  5
3CF
330
1F
100
AcDbEntity
  8
LAY-1
  6
CONTINUOUS
 62
     2
100
AcDbLine
 10
194.0961368227715
 20
348.2263815045001
 30
0.0
 11
174.4859420856504
 21
348.2263815045001
 31
0.0
  0
LINE
  5
3D0
330
1F
100
AcDbEntity
  8
LAY-1
  6
CONTINUOUS
 62
     2
100
AcDbLine
 10
194.0961368227715
 20
366.7736184954999
 30
0.0
 11
174.48594208565
 21
366.7736184954999
 31
0.0
  0
LINE
  5
3D1
330
1F
100
AcDbEntity
  8
LAY-1
  6
CONTINUOUS
 62
     2
100
AcDbLine
 10
173.7053442744109
 20
370.61671152983
 30
0.0
 11
173.7267287033925
 21
369.99643694632
 31
0.0
  0
LINE
  5
3D2
330
1F
100
AcDbEntity
  8
LAY-1
  6
CONTINUOUS
 62
     2
100
AcDbLine
 10
172.6113248655819
 20
373.53581705969
 30
0.0
 11
172.6113248655819
 21
378.4999999999818
 31
0.0
  0
LINE
  5
3D3
330
1F
100
AcDbEntity
  8
LAY-1
  6
CONTINUOUS
 62
     2
100
AcDbLine
 10
171.11132486558
 20
379.99999999999
 30
0.0
 11
169.7330013267942
 21
379.99999999999
 31
0.0
  0
LINE
  5
3D4
330
1F
100
AcDbEntity
  8
LAY-1
  6
CONTINUOUS
 62
     2
100
AcDbLine
 10
172.6113248655074
 20
373.5358170599005
 30
0.0
 11
172.6113248655079
 21
376.499999999996
 31
0.0
  0
ARC
  5
3D5
330
1F
100
AcDbEntity
  8
LAY-1
  6
CONTINUOUS
 62
     2
100
AcDbCircle
 10
180.6541830146119
 20
374.6678402591999
 30
0.0
 40
8.04350693536392
100
AcDbArc
 50
161.5225522204724
 51
191.2261570171102
  0
ARC
  5
3D6
330
1F
100
AcDbEntity
  8
LAY-1
  6
CONTINUOUS
 62
     2
100
AcDbCircle
 10
180.6541830146119
 20
374.6678402591999
 30
0.0
 40
8.04350693536392
100
AcDbArc
 50
204.8268188386826
 51
210.2419130254301
  0
LINE
  5
3D7
330
1F
100
AcDbEntity
  8
LAY-1
  6
CONTINUOUS
 62
     2
100
AcDbLine
 10
172.6113248655819
 20
341.4641829403151
 30
0.0
 11
172.6113248655819
 21
336.49999999999
 31
0.0
  0
ARC
  5
3D8
330
1F
100
AcDbEntity
  8
LAY-1
  6
CONTINUOUS
 62
     2
100
AcDbCircle
 10
180.6541830146119
 20
340.3321597408001
 30
0.0
 40
8.04350693536392
100
AcDbArc
 50
149.7580869745662
 51
155.1731811614365
  0
ARC
  5
3D9
330
1F
100
AcDbEntity
  8
LAY-1
  6
CONTINUOUS
 62
     2
100
AcDbCircle
 10
180.6541830146119
 20
340.3321597408001
 30
0.0
 40
8.04350693536392
100
AcDbArc
 50
168.7738429827548
 51
198.4774477795276
  0
ARC
  5
3DA
330
1F
100
AcDbEntity
  8
LAY-1
  6
CONTINUOUS
 62
     2
100
AcDbCircle
 10
551.3458169854682
 20
374.6678402591999
 30
0.0
 40
8.04350693536392
100
AcDbArc
 50
329.7580869745663
 51
335.1731811613173
  0
ARC
  5
3DB
330
1F
100
AcDbEntity
  8
LAY-1
  6
CONTINUOUS
 62
     2
100
AcDbCircle
 10
551.3458169854682
 20
374.6678402591999
 30
0.0
 40
8.04350693536392
100
AcDbArc
 50
348.7738429828897
 51
18.47744777952755
  0
LINE
  5
3DC
330
1F
100
AcDbEntity
  8
LAY-1
  6
CONTINUOUS
 62
     2
100
AcDbLine
 10
559.3886751345723
 20
373.5358170598996
 30
0.0
 11
559.3886751345722
 21
376.499999999996
 31
0.0
  0
LINE
  5
3DD
330
1F
100
AcDbEntity
  8
LAY-1
  6
CONTINUOUS
 62
     2
100
AcDbLine
 10
558.2946557256691
 20
370.6167115298299
 30
0.0
 11
558.2732712966877
 21
369.9964369463207
 31
0.0
  0
LINE
  5
3DE
330
1F
100
AcDbEntity
  8
LAY-1
  6
CONTINUOUS
 62
     2
100
AcDbLine
 10
537.9038631773086
 20
366.7736184954999
 30
0.0
 11
557.5140579144281
 21
366.7736184954999
 31
0.0
  0
LINE
  5
3DF
330
1F
100
AcDbEntity
  8
LAY-1
  6
CONTINUOUS
 62
     2
100
AcDbLine
 10
536.3886751345701
 20
376.1835034190711
 30
0.0
 11
536.3886751345701
 21
357.5
 31
0.0
  0
LINE
  5
3E0
330
1F
100
AcDbEntity
  8
LAY-1
  6
CONTINUOUS
 62
     2
100
AcDbLine
 10
535.81132486538
 20
376.0
 30
0.0
 11
522.1000000000001
 21
376.0
 31
0.0
  0
LINE
  5
3E1
330
1F
100
AcDbEntity
  8
LAY-1
  6
CONTINUOUS
 62
     2
100
AcDbLine
 10
535.81132486538
 20
339.0
 30
0.0
 11
522.1000000000001
 21
339.0
 31
0.0
  0
LINE
  5
3E2
330
1F
100
AcDbEntity
  8
LAY-1
  6
CONTINUOUS
 62
     2
100
AcDbLine
 10
536.3886751345701
 20
338.81649658093
 30
0.0
 11
536.3886751345701
 21
357.5
 31
0.0
  0
LINE
  5
3E3
330
1F
100
AcDbEntity
  8
LAY-1
  6
CONTINUOUS
 62
     2
100
AcDbLine
 10
537.9038631773085
 20
348.2263815045001
 30
0.0
 11
557.5140579144297
 21
348.2263815045001
 31
0.0
  0
LINE
  5
3E4
330
1F
100
AcDbEntity
  8
LAY-1
  6
CONTINUOUS
 62
     2
100
AcDbLine
 10
558.2946557256691
 20
344.38328847017
 30
0.0
 11
558.2732712966873
 21
345.0035630536885
 31
0.0
  0
LINE
  5
3E5
330
1F
100
AcDbEntity
  8
LAY-1
  6
CONTINUOUS
 62
     2
100
AcDbLine
 10
559.3886751345726
 20
341.4641829401074
 30
0.0
 11
559.3886751345722
 21
338.500000000004
 31
0.0
  0
ARC
  5
3E6
330
1F
100
AcDbEntity
  8
LAY-1
  6
CONTINUOUS
 62
     2
100
AcDbCircle
 10
551.3458169854681
 20
340.3321597408001
 30
0.0
 40
8.04350693536392
100
AcDbArc
 50
341.5225522204725
 51
11.22615701725021
  0
ARC
  5
3E7
330
1F
100
AcDbEntity
  8
LAY-1
  6
CONTINUOUS
 62
     2
100
AcDbCircle
 10
551.3458169854681
 20
340.3321597408001
 30
0.0
 40
8.04350693536392
100
AcDbArc
 50
24.82681883855848
 51
30.24191302543005
  0
LINE
  5
3E8
330
1F
100
AcDbEntity
  8
LAY-1
  6
CONTINUOUS
 62
     2
100
AcDbLine
 10
560.8886751345
 20
335.00000000001
 30
0.0
 11
562.2669986732901
 21
335.00000000001
 31
0.0
  0
LINE
  5
3E9
330
1F
100
AcDbEntity
  8
LAY-1
  6
CONTINUOUS
 62
     2
100
AcDbLine
 10
559.388675134498
 20
341.4641829403153
 30
0.0
 11
559.388675134498
 21
336.5000000000182
 31
0.0
  0
LINE
  5
3EA
330
1F
100
AcDbEntity
  8
LAY-1
  6
CONTINUOUS
 62
     2
100
AcDbLine
 10
559.388675134498
 20
373.5358170596926
 30
0.0
 11
559.388675134498
 21
378.50000000001
 31
0.0
  0
LINE
  5
3EB
330
1F
100
AcDbEntity
  8
LAY-1
  6
CONTINUOUS
 62
     2
100
AcDbLine
 10
560.8886751345
 20
380.00000000002
 30
0.0
 11
562.2669986733019
 21
380.00000000002
 31
0.0
  0
TEXT
  5
3EC
330
1F
100
AcDbEntity
  8
LAY-2
  6
CONTINUOUS
 62
     3
100
AcDbText
 10
491.3472994617396
 20
105.4697327999951
 30
0.0
 40
12.4724416
  1
型式
 41
1.760849960901652
  7
EXCADSTD
 72
     5
 11
525.8591682247095
 21
105.4697327999951
 31
0.0
100
AcDbText
  0
TEXT
  5
3ED
330
1F
100
AcDbEntity
  8
LAY-2
  6
CONTINUOUS
 62
     3
100
AcDbText
 10
490.9632994617396
 20
82.9417327999951
 30
0.0
 40
12.4724416
  1
品名
 41
1.760849960901652
  7
EXCADSTD
 72
     5
 11
525.4751682247095
 21
82.9417327999951
 31
0.0
100
AcDbText
  0
LINE
  5
3EE
330
1F
100
AcDbEntity
  8
LAY-2
  6
CONTINUOUS
 62
     4
100
AcDbLine
 10
483.7952994617399
 20
58.07999999999507
 30
0.0
 11
770.5152994617397
 21
58.07999999999507
 31
0.0
  0
LINE
  5
3EF
330
1F
100
AcDbEntity
  8
LAY-2
  6
CONTINUOUS
 62
     1
100
AcDbLine
 10
483.7952994617399
 20
77.59999999999505
 30
0.0
 11
770.5152994617397
 21
77.59999999999505
 31
0.0
  0
TEXT
  5
3F0
330
1F
100
AcDbEntity
  8
LAY-2
  6
CONTINUOUS
 62
     3
100
AcDbText
 10
585.6832994617398
 20
62.33373279999515
 30
0.0
 40
12.4724416
  1
外観図
 41
2.632270902717893
  7
EXCADSTD
 72
     5
 11
665.415351870594
 21
62.33373279999515
 31
0.0
100
AcDbText
  0
LINE
  5
3F1
330
1F
100
AcDbEntity
  8
LAY-2
  6
CONTINUOUS
 62
     4
100
AcDbLine
 10
483.7952994617399
 20
144.7999999999951
 30
0.0
 11
770.5152994617397
 21
144.7999999999951
 31
0.0
  0
LINE
  5
3F2
330
1F
100
AcDbEntity
  8
LAY-2
  6
CONTINUOUS
 62
     1
100
AcDbLine
 10
483.7952994617399
 20
99.99999999999514
 30
0.0
 11
770.5152994617397
 21
99.99999999999514
 31
0.0
  0
LINE
  5
3F3
330
1F
100
AcDbEntity
  8
LAY-2
  6
CONTINUOUS
 62
     1
100
AcDbLine
 10
483.7952994617399
 20
122.399999999995
 30
0.0
 11
770.5152994617397
 21
122.399999999995
 31
0.0
  0
LINE
  5
3F4
330
1F
100
AcDbEntity
  8
LAY-2
  6
CONTINUOUS
 62
     1
100
AcDbLine
 10
531.7952994617399
 20
144.7999999999951
 30
0.0
 11
531.7952994617399
 21
77.59999999999505
 31
0.0
  0
LINE
  5
3F5
330
1F
100
AcDbEntity
  8
LAY-2
  6
CONTINUOUS
 62
     4
100
AcDbLine
 10
483.7952994617399
 20
38.55999999999509
 30
0.0
 11
770.5152994617397
 21
38.55999999999509
 31
0.0
  0
LINE
  5
3F6
330
1F
100
AcDbEntity
  8
LAY-2
  6
CONTINUOUS
 62
     4
100
AcDbLine
 10
770.5152994617397
 20
38.55999999999509
 30
0.0
 11
770.5152994617397
 21
144.7999999999951
 31
0.0
  0
LINE
  5
3F7
330
1F
100
AcDbEntity
  8
LAY-2
  6
CONTINUOUS
 62
     4
100
AcDbLine
 10
483.7952994617399
 20
38.55999999999509
 30
0.0
 11
483.7952994617399
 21
144.7999999999951
 31
0.0
  0
TEXT
  5
3F8
330
1F
100
AcDbEntity
  8
LAY-2
  6
CONTINUOUS
 62
     3
100
AcDbText
 10
485.8432994617397
 20
127.357732799995
 30
0.0
 40
12.4724416
  1
作成日
 41
1.500154407240852
  7
EXCADSTD
 72
     5
 11
531.2832994617397
 21
127.357732799995
 31
0.0
100
AcDbText
  0
TEXT
  5
3F9
330
1F
100
AcDbEntity
  8
LAY-2
  6
CONTINUOUS
 62
     3
100
AcDbText
 10
539.7440994617396
 20
105.2777327999951
 30
0.0
 40
12.4724416
  1
Ｄ１－１５Ｆ
 41
1.498343355642572
  7
EXCADSTD
 72
     5
 11
633.1840994617396
 21
105.2777327999951
 31
0.0
100
AcDbText
  0
TEXT
  5
3FA
330
1F
100
AcDbEntity
  8
LAY-2
  6
CONTINUOUS
 62
     3
100
AcDbText
 10
539.7184994617396
 20
82.95453279999506
 30
0.0
 40
12.4724416
  1
１５Ａフランジ式グローブバルブ
 41
1.40190512346116
  7
EXCADSTD
 72
     5
 11
762.0300709644251
 21
82.95453279999506
 31
0.0
100
AcDbText
  0
INSERT
  5
3FB
330
1F
100
AcDbEntity
  8
LAY-2
  6
CONTINUOUS
 62
     0
100
AcDbBlockReference
  2
SYM-1
 10
620.073053342679
 20
48.81457499999503
 30
0.0
 41
2.2815
 42
2.2815
  0
TEXT
  5
3FC
330
1F
100
AcDbEntity
  8
LAY-2
  6
CONTINUOUS
 62
     3
100
AcDbText
 10
536.8196994617562
 20
125.6257895310604
 30
0.0
 40
12.16063085736618
  1
２０２４年　２月２３日
 41
1.497553922894604
  7
EXCADSTD
 72
     5
 11
705.923703596888
 21
125.6257895310604
 31
0.0
100
AcDbText
  0
TEXT
  5
3FD
330
1F
100
AcDbEntity
  8
LAY-5
  6
CONTINUOUS
 62
     3
100
AcDbText
 10
438.025000000004
 20
204.0917328119164
 30
0.0
 40
12.4724416
  1
ＪＩＳ　２０Ｋ１５Ａフランジ
 41
1.497354186898131
  7
EXCADSTD
 72
     5
 11
659.465000000004
 21
204.0917328119164
 31
0.0
100
AcDbText
  0
TEXT
  5
3FE
330
1F
100
AcDbEntity
  8
LAY-5
  6
CONTINUOUS
 62
     3
100
AcDbText
 10
438.025000000004
 20
188.0917328119164
 30
0.0
 40
12.4724416
  1
　　　　　４－φ１５
 41
1.497647584407075
  7
EXCADSTD
 72
     5
 11
595.465000000004
 21
188.0917328119164
 31
0.0
100
AcDbText
  0
POLYLINE
  5
3FF
330
1F
100
AcDbEntity
  8
LAY-5
  6
CONTINUOUS
 62
     1
100
AcDb2dPolyline
 66
     1
 10
0.0
 20
0.0
 30
0.0
 70
   128
  0
VERTEX
  5
400
330
3FF
100
AcDbEntity
  8
LAY-5
  6
CONTINUOUS
 62
     1
100
AcDbVertex
100
AcDb2dVertex
 10
415.5000000000038
 20
178.4999999999987
 30
0.0
  0
VERTEX
  5
401
330
3FF
100
AcDbEntity
  8
LAY-5
  6
CONTINUOUS
 62
     1
100
AcDbVertex
100
AcDb2dVertex
 10
438.6500000000043
 20
201.6499999999982
 30
0.0
  0
VERTEX
  5
402
330
3FF
100
AcDbEntity
  8
LAY-5
  6
CONTINUOUS
 62
     1
100
AcDbVertex
100
AcDb2dVertex
 10
664.7000000000044
 20
201.6499999999925
 30
0.0
  0
SEQEND
  5
403
330
3FF
100
AcDbEntity
  8
LAY-5
  6
CONTINUOUS
 62
     1
  0
LINE
  5
404
330
1F
100
AcDbEntity
  8
LAY-5
  6
CONTINUOUS
 62
     1
100
AcDbLine
 10
419.7426405747316
 20
184.4396968046174
 30
0.0
 11
415.5000000000038
 21
178.4999999999987
 31
0.0
  0
LINE
  5
405
330
1F
100
AcDbEntity
  8
LAY-5
  6
CONTINUOUS
 62
     1
100
AcDbLine
 10
415.5000000000038
 20
178.4999999999987
 30
0.0
 11
421.4396968046226
 21
182.7426405747263
 31
0.0
  0
LINE
  5
406
330
1F
100
AcDbEntity
  8
LAY-5
  6
CONTINUOUS
 62
     1
100
AcDbLine
 10
406.00000000004
 20
242.0000007629395
 30
0.0
 11
406.00000000004
 21
263.8
 31
0.0
  0
LINE
  5
407
330
1F
100
AcDbEntity
  8
LAY-5
  6
CONTINUOUS
 62
     1
100
AcDbLine
 10
326.00000000004
 20
242.0000007629395
 30
0.0
 11
326.00000000004
 21
263.8
 31
0.0
  0
TEXT
  5
408
330
1F
100
AcDbEntity
  8
LAY-5
  6
CONTINUOUS
 62
     3
100
AcDbText
 10
336.00000000004
 20
266.977166
 30
0.0
 40
15.590552
  1
φ
 41
1.508605981366152
  7
EXCADSTD
 72
     5
 11
352.80000000004
 21
266.977166
 31
0.0
100
AcDbText
  0
TEXT
  5
409
330
1F
100
AcDbEntity
  8
LAY-5
  6
CONTINUOUS
 62
     3
100
AcDbText
 10
356.00000000004
 20
266.977166
 30
0.0
 40
15.590552
  1
８０
 41
1.502075219542055
  7
EXCADSTD
 72
     5
 11
392.80000000004
 21
266.977166
 31
0.0
100
AcDbText
  0
LINE
  5
40A
330
1F
100
AcDbEntity
  8
LAY-5
  6
CONTINUOUS
 62
     1
100
AcDbLine
 10
406.00000000004
 20
263.3
 30
0.0
 11
326.00000000004
 21
263.3
 31
0.0
  0
LINE
  5
40B
330
1F
100
AcDbEntity
  8
LAY-5
  6
CONTINUOUS
 62
     1
100
AcDbLine
 10
398.8000001907749
 20
262.1000000317891
 30
0.0
 11
406.00000000004
 21
263.3
 31
0.0
  0
LINE
  5
40C
330
1F
100
AcDbEntity
  8
LAY-5
  6
CONTINUOUS
 62
     1
100
AcDbLine
 10
406.00000000004
 20
263.3
 30
0.0
 11
398.8000001907749
 21
264.4999999682109
 31
0.0
  0
LINE
  5
40D
330
1F
100
AcDbEntity
  8
LAY-5
  6
CONTINUOUS
 62
     1
100
AcDbLine
 10
333.1999998093052
 20
264.4999999682109
 30
0.0
 11
326.00000000004
 21
263.3
 31
0.0
  0
LINE
  5
40E
330
1F
100
AcDbEntity
  8
LAY-5
  6
CONTINUOUS
 62
     1
100
AcDbLine
 10
326.00000000004
 20
263.3
 30
0.0
 11
333.1999998093052
 21
262.1000000317891
 31
0.0
  0
LINE
  5
40F
330
1F
100
AcDbEntity
  8
LAY-5
  6
CONTINUOUS
 62
     1
100
AcDbLine
 10
305.994861852167
 20
131.000000000002
 30
0.0
 11
231.8999999999996
 21
131.000000000002
 31
0.0
  0
LINE
  5
410
330
1F
100
AcDbEntity
  8
LAY-5
  6
CONTINUOUS
 62
     1
100
AcDbLine
 10
332.5000000000289
 20
248.500000000033
 30
0.0
 11
231.9000000000005
 21
248.500000000033
 31
0.0
  0
TEXT
  5
411
330
1F
100
AcDbEntity
  8
LAY-5
  6
CONTINUOUS
 62
     3
100
AcDbText
 10
228.9728339999998
 20
159.7500000000176
 30
0.0
 40
15.590552
  1
１１８
 50
89.99999999999963
 41
1.50015440724085
  7
EXCADSTD
 72
     5
 11
228.9728340000002
 21
216.5500000000176
 31
0.0
100
AcDbText
  0
LINE
  5
412
330
1F
100
AcDbEntity
  8
LAY-5
  6
CONTINUOUS
 62
     1
100
AcDbLine
 10
232.3999999999996
 20
131.000000000002
 30
0.0
 11
232.4000000000005
 21
248.500000000033
 31
0.0
  0
LINE
  5
413
330
1F
100
AcDbEntity
  8
LAY-5
  6
CONTINUOUS
 62
     1
100
AcDbLine
 10
230.7333333333331
 20
141.000000000002
 30
0.0
 11
232.3999999999996
 21
131.000000000002
 31
0.0
  0
LINE
  5
414
330
1F
100
AcDbEntity
  8
LAY-5
  6
CONTINUOUS
 62
     1
100
AcDbLine
 10
232.3999999999996
 20
131.000000000002
 30
0.0
 11
234.0666666666664
 21
141.000000000002
 31
0.0
  0
LINE
  5
415
330
1F
100
AcDbEntity
  8
LAY-5
  6
CONTINUOUS
 62
     1
100
AcDbLine
 10
234.0666666666671
 20
238.500000000033
 30
0.0
 11
232.4000000000005
 21
248.500000000033
 31
0.0
  0
LINE
  5
416
330
1F
100
AcDbEntity
  8
LAY-5
  6
CONTINUOUS
 62
     1
100
AcDbLine
 10
232.4000000000005
 20
248.500000000033
 30
0.0
 11
230.7333333333337
 21
238.500000000033
 31
0.0
  0
POLYLINE
  5
417
330
1F
100
AcDbEntity
  8
LAY-5
  6
CONTINUOUS
 62
     1
100
AcDb2dPolyline
 66
     1
 10
0.0
 20
0.0
 30
0.0
 70
   128
  0
VERTEX
  5
418
330
417
100
AcDbEntity
  8
LAY-5
  6
CONTINUOUS
 62
     1
100
AcDbVertex
100
AcDb2dVertex
 10
316.4999999999993
 20
83.50000000000396
 30
0.0
  0
VERTEX
  5
419
330
417
100
AcDbEntity
  8
LAY-5
  6
CONTINUOUS
 62
     1
100
AcDbVertex
100
AcDb2dVertex
 10
293.3499999999989
 20
60.35000000000434
 30
0.0
  0
VERTEX
  5
41A
330
417
100
AcDbEntity
  8
LAY-5
  6
CONTINUOUS
 62
     1
100
AcDbVertex
100
AcDb2dVertex
 10
67.29999999999887
 20
60.35000000000778
 30
0.0
  0
SEQEND
  5
41B
330
417
100
AcDbEntity
  8
LAY-5
  6
CONTINUOUS
 62
     1
  0
LINE
  5
41C
330
1F
100
AcDbEntity
  8
LAY-5
  6
CONTINUOUS
 62
     1
100
AcDbLine
 10
312.2573594252715
 20
77.56030319538526
 30
0.0
 11
316.4999999999993
 21
83.50000000000396
 31
0.0
  0
LINE
  5
41D
330
1F
100
AcDbEntity
  8
LAY-5
  6
CONTINUOUS
 62
     1
100
AcDbLine
 10
316.4999999999993
 20
83.50000000000396
 30
0.0
 11
310.5603031953804
 21
79.25735942527636
 31
0.0
  0
TEXT
  5
41E
330
1F
100
AcDbEntity
  8
LAY-5
  6
CONTINUOUS
 62
     3
100
AcDbText
 10
72.22500000000093
 20
61.89173281192689
 30
0.0
 40
12.4724416
  1
ＪＩＳ　２０Ｋ１５Ａフランジ
 50
0.0000000000008292
 41
1.49735418689813
  7
EXCADSTD
 72
     5
 11
293.6650000000009
 21
61.89173281192368
 31
0.0
100
AcDbText
  0
TEXT
  5
41F
330
1F
100
AcDbEntity
  8
LAY-5
  6
CONTINUOUS
 62
     3
100
AcDbText
 10
72.2250000000007
 20
45.89173281192689
 30
0.0
 40
12.4724416
  1
　　　　　４－φ１５
 50
0.0000000000008275
 41
1.497647584407074
  7
EXCADSTD
 72
     5
 11
229.6650000000007
 21
45.89173281192461
 31
0.0
100
AcDbText
  0
LINE
  5
420
330
1F
100
AcDbEntity
  8
LAY-5
  6
CONTINUOUS
 62
     1
100
AcDbLine
 10
420.9999995668179
 20
105.5000000000001
 30
0.0
 11
420.9999995668179
 21
35.0
 31
0.0
  0
LINE
  5
421
330
1F
100
AcDbEntity
  8
LAY-5
  6
CONTINUOUS
 62
     1
100
AcDbLine
 10
311.0000004331839
 20
105.5000000000001
 30
0.0
 11
311.0000004331839
 21
35.0
 31
0.0
  0
TEXT
  5
422
330
1F
100
AcDbEntity
  8
LAY-5
  6
CONTINUOUS
 62
     3
100
AcDbText
 10
336.0000000000009
 20
39.177166
 30
0.0
 40
15.590552
  1
１１０
 41
1.50015440724085
  7
EXCADSTD
 72
     5
 11
392.8000000000009
 21
39.177166
 31
0.0
100
AcDbText
  0
LINE
  5
423
330
1F
100
AcDbEntity
  8
LAY-5
  6
CONTINUOUS
 62
     1
100
AcDbLine
 10
420.9999995668179
 20
35.5
 30
0.0
 11
311.0000004331839
 21
35.5
 31
0.0
  0
LINE
  5
424
330
1F
100
AcDbEntity
  8
LAY-5
  6
CONTINUOUS
 62
     1
100
AcDbLine
 10
413.7999997575528
 20
34.30000003178915
 30
0.0
 11
420.9999995668179
 21
35.5
 31
0.0
  0
LINE
  5
425
330
1F
100
AcDbEntity
  8
LAY-5
  6
CONTINUOUS
 62
     1
100
AcDbLine
 10
420.9999995668179
 20
35.5
 30
0.0
 11
413.7999997575528
 21
36.69999996821086
 31
0.0
  0
LINE
  5
426
330
1F
100
AcDbEntity
  8
LAY-5
  6
CONTINUOUS
 62
     1
100
AcDbLine
 10
318.2000002424491
 20
36.69999996821085
 30
0.0
 11
311.0000004331839
 21
35.5
 31
0.0
  0
LINE
  5
427
330
1F
100
AcDbEntity
  8
LAY-5
  6
CONTINUOUS
 62
     1
100
AcDbLine
 10
311.0000004331839
 20
35.5
 30
0.0
 11
318.2000002424491
 21
34.30000003178914
 31
0.0
  0
ENDSEC
  0
SECTION
  2
OBJECTS
  0
DICTIONARY
  5
C
330
0
100
AcDbDictionary
  3
ACAD_GROUP
350
D
  3
ACAD_LAYOUT
350
1A
  3
ACAD_MATERIAL
350
43
  3
ACAD_MLEADERSTYLE
350
6B
  3
ACAD_MLINESTYLE
350
17
  3
ACAD_PLOTSETTINGS
350
19
  3
ACAD_SCALELIST
350
47
  3
ACAD_VISUALSTYLE
350
2A
  3
ACDBHEADERROUNDTRIPXREC
350
428
  3
ACDBVARIABLEDICTIONARY
350
449
  0
DICTIONARY
  5
454
330
8
100
AcDbDictionary
280
     1
  3
ACAD_XREC_ROUNDTRIP
360
455
  0
DICTIONARY
  5
D
102
{ACAD_REACTORS
330
C
102
}
330
C
100
AcDbDictionary
  0
DICTIONARY
  5
1A
102
{ACAD_REACTORS
330
C
102
}
330
C
100
AcDbDictionary
  0
DICTIONARY
  5
43
102
{ACAD_REACTORS
330
C
102
}
330
C
100
AcDbDictionary
  3
BYBLOCK
350
45
  3
BYLAYER
350
44
  3
GLOBAL
350
46
  0
DICTIONARY
  5
6B
102
{ACAD_REACTORS
330
C
102
}
330
C
100
AcDbDictionary
  3
STANDARD
350
6C
  0
DICTIONARY
  5
17
102
{ACAD_REACTORS
330
C
102
}
330
C
100
AcDbDictionary
  3
STANDARD
350
18
  0
DICTIONARY
  5
19
102
{ACAD_REACTORS
330
C
102
}
330
C
100
AcDbDictionary
  0
DICTIONARY
  5
47
102
{ACAD_REACTORS
330
C
102
}
330
C
100
AcDbDictionary
  3
A0
350
48
  3
A1
350
49
  3
A2
350
4A
  3
A3
350
4B
  3
A4
350
4C
  3
A5
350
4D
  3
A6
350
4E
  3
A7
350
4F
  3
A8
350
50
  3
A9
350
51
  3
B0
350
52
  3
B1
350
53
  3
B2
350
54
  3
B3
350
55
  3
B4
350
56
  3
B5
350
57
  3
B6
350
58
  3
B7
350
59
  3
B8
350
5A
  3
B9
350
5B
  3
C0
350
5C
  3
C1
350
5D
  3
C2
350
5E
  3
C3
350
5F
  3
C4
350
60
  3
C5
350
61
  3
C6
350
62
  3
C7
350
63
  3
C8
350
64
  3
C9
350
65
  3
D0
350
66
  3
D1
350
67
  3
D2
350
68
  0
DICTIONARY
  5
2A
102
{ACAD_REACTORS
330
C
102
}
330
C
100
AcDbDictionary
  3
2DWIREFRAME
350
2F
  3
BASIC
350
32
  3
BRIGHTEN
350
36
  3
COLORCHANGE
350
3A
  3
CONCEPTUAL
350
34
  3
DIM
350
35
  3
EDGECOLOROFF
350
3D
  3
FACEPATTERN
350
39
  3
FLAT
350
2B
  3
FLATWITHEDGES
350
2C
  3
GOURAUD
350
2D
  3
GOURAUDWITHEDGES
350
2E
  3
HIDDEN
350
31
  3
JITTEROFF
350
3B
  3
LINEPATTERN
350
38
  3
OVERHANGOFF
350
3C
  3
REALISTIC
350
33
  3
SHADED
350
42
  3
SHADED_WITH_EDGES
350
41
  3
SHADES_OF_GRAY
350
3E
  3
SKETCHY
350
3F
  3
THICKEN
350
37
  3
WIREFRAME
350
30
  3
X-RAY
350
40
  0
DICTIONARY
  5
428
102
{ACAD_REACTORS
330
C
102
}
330
C
100
AcDbDictionary
  3
CEPSNID
350
432
  3
CEPSNTYPE
350
431
  3
DIMSTYLEDATA
350
448
  3
FINGERPRINTGUID
350
433
  3
HYPERLINKBASE
350
42B
  3
INSUNITS
350
430
  3
LAYOUTDICT
350
42D
  3
LWETCUNION
350
42F
  3
PLOTSETDICT
350
42E
  3
PSVPSCALE
350
435
  3
PUCSBASE
350
438
  3
PUCSORGBACK
350
43E
  3
PUCSORGBOTTOM
350
43A
  3
PUCSORGFRONT
350
43D
  3
PUCSORGLEFT
350
43B
  3
PUCSORGRIGHT
350
43C
  3
PUCSORGTOP
350
439
  3
PUCSORTHOREF
350
436
  3
PUCSORTHOVIEW
350
437
  3
STYLESHEET
350
42C
  3
TSTACKALIGN
350
429
  3
TSTACKSIZE
350
42A
  3
UCSBASE
350
441
  3
UCSORGBACK
350
447
  3
UCSORGBOTTOM
350
443
  3
UCSORGFRONT
350
446
  3
UCSORGLEFT
350
444
  3
UCSORGRIGHT
350
445
  3
UCSORGTOP
350
442
  3
UCSORTHOREF
350
43F
  3
UCSORTHOVIEW
350
440
  3
VERSIONGUID
350
434
  0
DICTIONARY
  5
449
102
{ACAD_REACTORS
330
C
102
}
330
C
100
AcDbDictionary
  3
CANNOSCALE
350
456
  3
CENTEREXE
350
450
  3
CENTERLTYPEFILE
350
451
  3
CMLEADERSTYLE
350
44B
  3
CTABLESTYLE
350
44A
  3
DIMASSOC
350
452
  3
HIDETEXT
350
453
  3
MSLTSCALE
350
457
  3
PSOLHEIGHT
350
44D
  3
PSOLWIDTH
350
44C
  0
XRECORD
  5
455
102
{ACAD_REACTORS
330
454
102
}
330
454
100
AcDbXrecord
102
VTR_0.000_0.000_1.000_1.000_VISUALSTYLE
340
2F
102
VTR_0.000_0.000_1.000_1.000_GRIDDISPLAY
 70
     3
102
VTR_0.000_0.000_1.000_1.000_GRIDMAJOR
 70
     5
102
VTR_0.000_0.000_1.000_1.000_DEFAULTLIGHTING
280
     1
102
VTR_0.000_0.000_1.000_1.000_DEFAULTLIGHTINGTYPE
 70
     1
102
VTR_0.000_0.000_1.000_1.000_BRIGHTNESS
141
0.0
102
VTR_0.000_0.000_1.000_1.000_CONTRAST
142
0.0
  0
MATERIAL
  5
45
102
{ACAD_REACTORS
330
43
102
}
102
{ACAD_XDICTIONARY
360
45A
102
}
330
43
100
AcDbMaterial
  1
BYBLOCK
  0
MATERIAL
  5
44
102
{ACAD_REACTORS
330
43
102
}
102
{ACAD_XDICTIONARY
360
458
102
}
330
43
100
AcDbMaterial
  1
BYLAYER
  0
MATERIAL
  5
46
102
{ACAD_REACTORS
330
43
102
}
102
{ACAD_XDICTIONARY
360
45C
102
}
330
43
100
AcDbMaterial
  1
GLOBAL
  0
ACAD_PROXY_OBJECT
  5
6C
102
{ACAD_REACTORS
330
6B
102
}
330
6B
100
AcDbProxyObject
 90
      499
 91
      505
 93
      610
310
40901902A4063FBFFFFFE0000000000000020400000000000020404214DD185B99185C990000000000000104090141901A00000000000004100000000000000041025764000000000000039000
340
14
340
0
340
11
340
0
 94
        0
1001
ACAD_MLEADERVER
1070
     2
  0
MLINESTYLE
  5
18
102
{ACAD_REACTORS
330
17
102
}
330
17
100
AcDbMlineStyle
  2
Standard
 70
     0
  3

 62
   256
 51
90.0
 52
90.0
 71
     2
 49
0.5
 62
   256
  6
BYLAYER
 49
-0.5
 62
   256
  6
BYLAYER
  0
ACAD_PROXY_OBJECT
  5
48
102
{ACAD_REACTORS
330
47
102
}
330
47
100
AcDbProxyObject
 90
      499
 91
      503
 93
       41
310
903313A31580
  0
ACAD_PROXY_OBJECT
  5
49
102
{ACAD_REACTORS
330
47
102
}
330
47
100
AcDbProxyObject
 90
      499
 91
      503
 93
      105
310
903313A324000000000000004000
  0
ACAD_PROXY_OBJECT
  5
4A
102
{ACAD_REACTORS
330
47
102
}
330
47
100
AcDbProxyObject
 90
      499
 91
      503
 93
      105
310
903313A344000000000000104000
  0
ACAD_PROXY_OBJECT
  5
4B
102
{ACAD_REACTORS
330
47
102
}
330
47
100
AcDbProxyObject
 90
      499
 91
      503
 93
      105
310
903313A354000000000000144000
  0
ACAD_PROXY_OBJECT
  5
4C
102
{ACAD_REACTORS
330
47
102
}
330
47
100
AcDbProxyObject
 90
      499
 91
      503
 93
      105
310
903313A384000000000000204000
  0
ACAD_PROXY_OBJECT
  5
4D
102
{ACAD_REACTORS
330
47
102
}
330
47
100
AcDbProxyObject
 90
      499
 91
      503
 93
      113
310
904313A31304000000000000244000
  0
ACAD_PROXY_OBJECT
  5
4E
102
{ACAD_REACTORS
330
47
102
}
330
47
100
AcDbProxyObject
 90
      499
 91
      503
 93
      113
310
904313A31364000000000000304000
  0
ACAD_PROXY_OBJECT
  5
4F
102
{ACAD_REACTORS
330
47
102
}
330
47
100
AcDbProxyObject
 90
      499
 91
      503
 93
      113
310
904313A32304000000000000344000
  0
ACAD_PROXY_OBJECT
  5
50
102
{ACAD_REACTORS
330
47
102
}
330
47
100
AcDbProxyObject
 90
      499
 91
      503
 93
      113
310
904313A333040000000000003E4000
  0
ACAD_PROXY_OBJECT
  5
51
102
{ACAD_REACTORS
330
47
102
}
330
47
100
AcDbProxyObject
 90
      499
 91
      503
 93
      113
310
904313A34304000000000000444000
  0
ACAD_PROXY_OBJECT
  5
52
102
{ACAD_REACTORS
330
47
102
}
330
47
100
AcDbProxyObject
 90
      499
 91
      503
 93
      113
310
904313A35304000000000000494000
  0
ACAD_PROXY_OBJECT
  5
53
102
{ACAD_REACTORS
330
47
102
}
330
47
100
AcDbProxyObject
 90
      499
 91
      503
 93
      121
310
905313A3130304000000000000594000
  0
ACAD_PROXY_OBJECT
  5
54
102
{ACAD_REACTORS
330
47
102
}
330
47
100
AcDbProxyObject
 90
      499
 91
      503
 93
      105
310
903323A310000000000000010100
  0
ACAD_PROXY_OBJECT
  5
55
102
{ACAD_REACTORS
330
47
102
}
330
47
100
AcDbProxyObject
 90
      499
 91
      503
 93
      105
310
903343A310000000000000410100
  0
ACAD_PROXY_OBJECT
  5
56
102
{ACAD_REACTORS
330
47
102
}
330
47
100
AcDbProxyObject
 90
      499
 91
      503
 93
      105
310
903383A310000000000000810100
  0
ACAD_PROXY_OBJECT
  5
57
102
{ACAD_REACTORS
330
47
102
}
330
47
100
AcDbProxyObject
 90
      499
 91
      503
 93
      113
310
90431303A310000000000000910100
  0
ACAD_PROXY_OBJECT
  5
58
102
{ACAD_REACTORS
330
47
102
}
330
47
100
AcDbProxyObject
 90
      499
 91
      503
 93
      121
310
9053130303A310000000000001650100
  0
ACAD_PROXY_OBJECT
  5
59
102
{ACAD_REACTORS
330
47
102
}
330
47
100
AcDbProxyObject
 90
      499
 91
      503
 93
      257
310
90E312F31323822203D2031272D3022000000000000200FC000000000000284000
  0
ACAD_PROXY_OBJECT
  5
5A
102
{ACAD_REACTORS
330
47
102
}
330
47
100
AcDbProxyObject
 90
      499
 91
      503
 93
      249
310
90D312F363422203D2031272D3022000000000000240FC000000000000284000
  0
ACAD_PROXY_OBJECT
  5
5B
102
{ACAD_REACTORS
330
47
102
}
330
47
100
AcDbProxyObject
 90
      499
 91
      503
 93
      249
310
90D312F333222203D2031272D3022000000000000280FC000000000000284000
  0
ACAD_PROXY_OBJECT
  5
5C
102
{ACAD_REACTORS
330
47
102
}
330
47
100
AcDbProxyObject
 90
      499
 91
      503
 93
      249
310
90D312F313622203D2031272D30220000000000002C0FC000000000000284000
  0
ACAD_PROXY_OBJECT
  5
5D
102
{ACAD_REACTORS
330
47
102
}
330
47
100
AcDbProxyObject
 90
      499
 91
      503
 93
      249
310
90D332F333222203D2031272D30220000000000002E0FC000000000000284000
  0
ACAD_PROXY_OBJECT
  5
5E
102
{ACAD_REACTORS
330
47
102
}
330
47
100
AcDbProxyObject
 90
      499
 91
      503
 93
      241
310
90C312F3822203D2031272D3022000000000000300FC000000000000284000
  0
ACAD_PROXY_OBJECT
  5
5F
102
{ACAD_REACTORS
330
47
102
}
330
47
100
AcDbProxyObject
 90
      499
 91
      503
 93
      249
310
90D332F313622203D2031272D3022000000000000320FC000000000000284000
  0
ACAD_PROXY_OBJECT
  5
60
102
{ACAD_REACTORS
330
47
102
}
330
47
100
AcDbProxyObject
 90
      499
 91
      503
 93
      241
310
90C312F3422203D2031272D3022000000000000340FC000000000000284000
  0
ACAD_PROXY_OBJECT
  5
61
102
{ACAD_REACTORS
330
47
102
}
330
47
100
AcDbProxyObject
 90
      499
 91
      503
 93
      241
310
90C332F3822203D2031272D3022000000000000360FC000000000000284000
  0
ACAD_PROXY_OBJECT
  5
62
102
{ACAD_REACTORS
330
47
102
}
330
47
100
AcDbProxyObject
 90
      499
 91
      503
 93
      241
310
90C312F3222203D2031272D3022000000000000380FC000000000000284000
  0
ACAD_PROXY_OBJECT
  5
63
102
{ACAD_REACTORS
330
47
102
}
330
47
100
AcDbProxyObject
 90
      499
 91
      503
 93
      241
310
90C332F3422203D2031272D30220000000000003A0FC000000000000284000
  0
ACAD_PROXY_OBJECT
  5
64
102
{ACAD_REACTORS
330
47
102
}
330
47
100
AcDbProxyObject
 90
      499
 91
      503
 93
      161
310
90A3122203D2031272D30224000000000000284000
  0
ACAD_PROXY_OBJECT
  5
65
102
{ACAD_REACTORS
330
47
102
}
330
47
100
AcDbProxyObject
 90
      499
 91
      503
 93
      257
310
90E312D312F3222203D2031272D30220000000000003E0FC000000000000284000
  0
ACAD_PROXY_OBJECT
  5
66
102
{ACAD_REACTORS
330
47
102
}
330
47
100
AcDbProxyObject
 90
      499
 91
      503
 93
      225
310
90A3322203D2031272D302200000000000002100000000000000284000
  0
ACAD_PROXY_OBJECT
  5
67
102
{ACAD_REACTORS
330
47
102
}
330
47
100
AcDbProxyObject
 90
      499
 91
      503
 93
      225
310
90A3622203D2031272D302200000000000006100000000000000284000
  0
ACAD_PROXY_OBJECT
  5
68
102
{ACAD_REACTORS
330
47
102
}
330
47
100
AcDbProxyObject
 90
      499
 91
      503
 93
      249
310
90D31272D3022203D2031272D30220000000000000A100000000000000284000
  0
ACAD_PROXY_OBJECT
  5
2F
102
{ACAD_REACTORS
330
2A
102
}
330
2A
100
AcDbProxyObject
 90
      499
 91
      501
 93
      436
310
42CC9915DA5C99599C985B595049028333333333333E33F0000000000000F90107901411070040501600405405064090741402480A0340
1001
ACAD
1000
AcDbSavedByObjectVersion
1070
     0
  0
ACAD_PROXY_OBJECT
  5
32
102
{ACAD_REACTORS
330
2A
102
}
330
2A
100
AcDbProxyObject
 90
      499
 91
      501
 93
      388
310
4150985CDA58D07406404333333333333E33F0000000000000F90107A41107004050150841D405064090741402480A0350
1001
ACAD
1000
AcDbSavedByObjectVersion
1070
     0
  0
ACAD_PROXY_OBJECT
  5
36
102
{ACAD_REACTORS
330
2A
102
}
330
2A
100
AcDbProxyObject
 90
      499
 91
      501
 93
      428
310
42109C9A59DA1D195B90C409028333333333333E33F0000000000000F9010790141107004050150841D405064090741402480A029950
1001
ACAD
1000
AcDbSavedByObjectVersion
1070
     0
  0
ACAD_PROXY_OBJECT
  5
3A
102
{ACAD_REACTORS
330
2A
102
}
330
2A
100
AcDbProxyObject
 90
      499
 91
      501
 93
      452
310
42D0DBDB1BDC90DA185B99D95104090240C333333333333E33F0000000000000F90108901411070040501508421405064090741402480A0350
1001
ACAD
1000
AcDbSavedByObjectVersion
1070
     0
  0
ACAD_PROXY_OBJECT
  5
34
102
{ACAD_REACTORS
330
2A
102
}
330
2A
100
AcDbProxyObject
 90
      499
 91
      501
 93
      500
310
4290DBDB98D95C1D1D585B10940D028333333333333E33F0000000000000F90107902409070040501000000000018199010841D405064090740C02480A0340
1001
ACAD
1000
AcDbSavedByObjectVersion
1070
     0
  0
ACAD_PROXY_OBJECT
  5
35
102
{ACAD_REACTORS
330
2A
102
}
330
2A
100
AcDbProxyObject
 90
      499
 91
      501
 93
      412
310
40D11A5B50B409028333333333333E33F0000000000000F9010790141107004050150841D405064090741402480A02677FFFFFD0
1001
ACAD
1000
AcDbSavedByObjectVersion
1070
     0
  0
ACAD_PROXY_OBJECT
  5
3D
102
{ACAD_REACTORS
330
2A
102
}
330
2A
100
AcDbProxyObject
 90
      499
 91
      501
 93
      452
310
43115919D950DBDB1BDC93D999916409028333333333333E33F0000000000000F9010790141107004050150841D405064090741402480A0350
1001
ACAD
1000
AcDbSavedByObjectVersion
1070
     0
  0
ACAD_PROXY_OBJECT
  5
39
102
{ACAD_REACTORS
330
2A
102
}
330
2A
100
AcDbProxyObject
 90
      499
 91
      501
 93
      444
310
42D19858D95C185D1D195C9B90F409028333333333333E33F0000000000000F9010790141107004050150841D405064090741402480A0350
1001
ACAD
1000
AcDbSavedByObjectVersion
1070
     0
  0
ACAD_PROXY_OBJECT
  5
2B
102
{ACAD_REACTORS
330
2A
102
}
330
2A
100
AcDbProxyObject
 90
      499
 91
      501
 93
      380
310
41119B185D240901404333333333333E33F0000000000000F9010740A907004050150841D405064090741402480A1B50
1001
ACAD
1000
AcDbSavedByObjectVersion
1070
     0
  0
ACAD_PROXY_OBJECT
  5
2C
102
{ACAD_REACTORS
330
2A
102
}
330
2A
100
AcDbProxyObject
 90
      499
 91
      501
 93
      468
310
43519B185D15DA5D1A115919D95CD0140901404333333333333E33F0000000000000F90107409019070040501600405405064090741402480A1B50
1001
ACAD
1000
AcDbSavedByObjectVersion
1070
     0
  0
ACAD_PROXY_OBJECT
  5
2D
102
{ACAD_REACTORS
330
2A
102
}
330
2A
100
AcDbProxyObject
 90
      499
 91
      501
 93
      404
310
41D1DBDD5C985D5910240902404333333333333E33F0000000000000F9010740A9070040501641D405064090741402480A1B50
1001
ACAD
1000
AcDbSavedByObjectVersion
1070
     0
  0
ACAD_PROXY_OBJECT
  5
2E
102
{ACAD_REACTORS
330
2A
102
}
330
2A
100
AcDbProxyObject
 90
      499
 91
      501
 93
      492
310
4411DBDD5C985D5915DA5D1A115919D95CD0340902404333333333333E33F0000000000000F90107409019070040501600405405064090741402480A1B50
1001
ACAD
1000
AcDbSavedByObjectVersion
1070
     0
  0
ACAD_PROXY_OBJECT
  5
31
102
{ACAD_REACTORS
330
2A
102
}
330
2A
100
AcDbProxyObject
 90
      499
 91
      501
 93
      476
310
41921A5919195B90640502408333333333333E33F0000000000000F901079024090700405020000000000001110200405405064090740C02480A0340
1001
ACAD
1000
AcDbSavedByObjectVersion
1070
     0
  0
ACAD_PROXY_OBJECT
  5
3B
102
{ACAD_REACTORS
330
2A
102
}
330
2A
100
AcDbProxyObject
 90
      499
 91
      501
 93
      428
310
42529A5D1D195C93D999914409028333333333333E33F0000000000000F9010790141107004050150A41D405064090741402480A0350
1001
ACAD
1000
AcDbSavedByObjectVersion
1070
     0
  0
ACAD_PROXY_OBJECT
  5
38
102
{ACAD_REACTORS
330
2A
102
}
330
2A
100
AcDbProxyObject
 90
      499
 91
      501
 93
      444
310
42D31A5B995C185D1D195C9B90E409028333333333333E33F0000000000000F9010790141107004050750841D405064090741402483A0350
1001
ACAD
1000
AcDbSavedByObjectVersion
1070
     0
  0
ACAD_PROXY_OBJECT
  5
3C
102
{ACAD_REACTORS
330
2A
102
}
330
2A
100
AcDbProxyObject
 90
      499
 91
      501
 93
      444
310
42D3DD995C9A185B99D3D999915409028333333333333E33F0000000000000F9010790141107004050150941D405064090741402480A0350
1001
ACAD
1000
AcDbSavedByObjectVersion
1070
     0
  0
ACAD_PROXY_OBJECT
  5
33
102
{ACAD_REACTORS
330
2A
102
}
330
2A
100
AcDbProxyObject
 90
      499
 91
      501
 93
      428
310
425499585B1A5CDD1A58D08409038333333333333E33F0000000000000F9010740A907004050150800405405064090740C02480A1B40
1001
ACAD
1000
AcDbSavedByObjectVersion
1070
     0
  0
ACAD_PROXY_OBJECT
  5
42
102
{ACAD_REACTORS
330
2A
102
}
330
2A
100
AcDbProxyObject
 90
      499
 91
      501
 93
      420
310
4194DA1859195911B40902404333333333333E33F0000000000000F9010740A41107004050150800405405064090840C02480A0B40
1001
ACAD
1000
AcDbSavedByObjectVersion
1070
     0
  0
ACAD_PROXY_OBJECT
  5
41
102
{ACAD_REACTORS
330
2A
102
}
330
2A
100
AcDbProxyObject
 90
      499
 91
      501
 93
      516
310
4454DA18591959081DDA5D1A08195919D95CD1A40902404333333333333E33F0000000000000F901074090142907004050250800405405064090740C02480A0B40
1001
ACAD
1000
AcDbSavedByObjectVersion
1070
     0
  0
ACAD_PROXY_OBJECT
  5
3E
102
{ACAD_REACTORS
330
2A
102
}
330
2A
100
AcDbProxyObject
 90
      499
 91
      501
 93
      532
310
4394DA1859195CC81BD98811DC985E5174090240C333333333333E33F0000000000000F901079024090741D01000000000000111010841D405064090740C02480A0340
1001
ACAD
1000
AcDbSavedByObjectVersion
1070
     0
  0
ACAD_PROXY_OBJECT
  5
3F
102
{ACAD_REACTORS
330
2A
102
}
330
2A
100
AcDbProxyObject
 90
      499
 91
      501
 93
      476
310
41D4DAD95D18DA1E51840502408333333333333E33F0000000000000F901079024090741D01000000000000111010B41D405064090741802480A0340
1001
ACAD
1000
AcDbSavedByObjectVersion
1070
     0
  0
ACAD_PROXY_OBJECT
  5
37
102
{ACAD_REACTORS
330
2A
102
}
330
2A
100
AcDbProxyObject
 90
      499
 91
      501
 93
      412
310
41D51A1A58DAD95B90D409028333333333333E33F0000000000000F9010790141107004050150C41D405064090741402480A0350
1001
ACAD
1000
AcDbSavedByObjectVersion
1070
     0
  0
ACAD_PROXY_OBJECT
  5
30
102
{ACAD_REACTORS
330
2A
102
}
330
2A
100
AcDbProxyObject
 90
      499
 91
      501
 93
      420
310
4255DA5C99599C985B595059028333333333333E33F0000000000000F90107901411070040501600405405064090740C02480A0340
1001
ACAD
1000
AcDbSavedByObjectVersion
1070
     0
  0
ACAD_PROXY_OBJECT
  5
40
102
{ACAD_REACTORS
330
2A
102
}
330
2A
100
AcDbProxyObject
 90
      499
 91
      501
 93
      404
310
41560B54985E51940902404000000000000E03F0000000000000F9010740501907004050150841D405064090740C02480A1B40
1001
ACAD
1000
AcDbSavedByObjectVersion
1070
     0
  0
XRECORD
  5
432
102
{ACAD_REACTORS
330
428
102
}
330
428
100
AcDbXrecord
340
0
  0
XRECORD
  5
431
102
{ACAD_REACTORS
330
428
102
}
330
428
100
AcDbXrecord
 90
        0
  0
XRECORD
  5
448
102
{ACAD_REACTORS
330
428
102
}
330
428
100
AcDbXrecord
1000
DSTYLE
1002
{
1070
   340
340
11
1002
}
  0
XRECORD
  5
433
102
{ACAD_REACTORS
330
428
102
}
330
428
100
AcDbXrecord
  1
{8686dd96-5988-46f0-8f3a-cad626fa8cda}
  0
XRECORD
  5
42B
102
{ACAD_REACTORS
330
428
102
}
330
428
100
AcDbXrecord
  1

  0
XRECORD
  5
430
102
{ACAD_REACTORS
330
428
102
}
330
428
100
AcDbXrecord
 90
        4
  0
XRECORD
  5
42D
102
{ACAD_REACTORS
330
428
102
}
330
428
100
AcDbXrecord
340
1A
  0
XRECORD
  5
42F
102
{ACAD_REACTORS
330
428
102
}
330
428
100
AcDbXrecord
 90
    10781
  0
XRECORD
  5
42E
102
{ACAD_REACTORS
330
428
102
}
330
428
100
AcDbXrecord
340
19
  0
XRECORD
  5
435
102
{ACAD_REACTORS
330
428
102
}
330
428
100
AcDbXrecord
 40
0.0
  0
XRECORD
  5
438
102
{ACAD_REACTORS
330
428
102
}
330
428
100
AcDbXrecord
340
0
  0
XRECORD
  5
43E
102
{ACAD_REACTORS
330
428
102
}
330
428
100
AcDbXrecord
 10
0.0
 20
0.0
 30
0.0
  0
XRECORD
  5
43A
102
{ACAD_REACTORS
330
428
102
}
330
428
100
AcDbXrecord
 10
0.0
 20
0.0
 30
0.0
  0
XRECORD
  5
43D
102
{ACAD_REACTORS
330
428
102
}
330
428
100
AcDbXrecord
 10
0.0
 20
0.0
 30
0.0
  0
XRECORD
  5
43B
102
{ACAD_REACTORS
330
428
102
}
330
428
100
AcDbXrecord
 10
0.0
 20
0.0
 30
0.0
  0
XRECORD
  5
43C
102
{ACAD_REACTORS
330
428
102
}
330
428
100
AcDbXrecord
 10
0.0
 20
0.0
 30
0.0
  0
XRECORD
  5
439
102
{ACAD_REACTORS
330
428
102
}
330
428
100
AcDbXrecord
 10
0.0
 20
0.0
 30
0.0
  0
XRECORD
  5
436
102
{ACAD_REACTORS
330
428
102
}
330
428
100
AcDbXrecord
340
0
  0
XRECORD
  5
437
102
{ACAD_REACTORS
330
428
102
}
330
428
100
AcDbXrecord
 70
     0
  0
XRECORD
  5
42C
102
{ACAD_REACTORS
330
428
102
}
330
428
100
AcDbXrecord
  1

  0
XRECORD
  5
429
102
{ACAD_REACTORS
330
428
102
}
330
428
100
AcDbXrecord
 90
        1
  0
XRECORD
  5
42A
102
{ACAD_REACTORS
330
428
102
}
330
428
100
AcDbXrecord
 90
       70
  0
XRECORD
  5
441
102
{ACAD_REACTORS
330
428
102
}
330
428
100
AcDbXrecord
340
0
  0
XRECORD
  5
447
102
{ACAD_REACTORS
330
428
102
}
330
428
100
AcDbXrecord
 10
0.0
 20
0.0
 30
0.0
  0
XRECORD
  5
443
102
{ACAD_REACTORS
330
428
102
}
330
428
100
AcDbXrecord
 10
0.0
 20
0.0
 30
0.0
  0
XRECORD
  5
446
102
{ACAD_REACTORS
330
428
102
}
330
428
100
AcDbXrecord
 10
0.0
 20
0.0
 30
0.0
  0
XRECORD
  5
444
102
{ACAD_REACTORS
330
428
102
}
330
428
100
AcDbXrecord
 10
0.0
 20
0.0
 30
0.0
  0
XRECORD
  5
445
102
{ACAD_REACTORS
330
428
102
}
330
428
100
AcDbXrecord
 10
0.0
 20
0.0
 30
0.0
  0
XRECORD
  5
442
102
{ACAD_REACTORS
330
428
102
}
330
428
100
AcDbXrecord
 10
0.0
 20
0.0
 30
0.0
  0
XRECORD
  5
43F
102
{ACAD_REACTORS
330
428
102
}
330
428
100
AcDbXrecord
340
0
  0
XRECORD
  5
440
102
{ACAD_REACTORS
330
428
102
}
330
428
100
AcDbXrecord
 70
     0
  0
XRECORD
  5
434
102
{ACAD_REACTORS
330
428
102
}
330
428
100
AcDbXrecord
  1
{FAEB1C32-E019-11D5-929B-00C0DF256EC4}
  0
DICTIONARYVAR
  5
456
102
{ACAD_REACTORS
330
449
102
}
330
449
100
DictionaryVariables
280
     0
  1
1:1
  0
DICTIONARYVAR
  5
450
102
{ACAD_REACTORS
330
449
102
}
330
449
100
DictionaryVariables
280
     0
  1
3.500000
  0
DICTIONARYVAR
  5
451
102
{ACAD_REACTORS
330
449
102
}
330
449
100
DictionaryVariables
280
     0
  1
acadiso.lin
  0
DICTIONARYVAR
  5
44B
102
{ACAD_REACTORS
330
449
102
}
330
449
100
DictionaryVariables
280
     0
  1
Standard
  0
DICTIONARYVAR
  5
44A
102
{ACAD_REACTORS
330
449
102
}
330
449
100
DictionaryVariables
280
     0
  1
Standard
  0
DICTIONARYVAR
  5
452
102
{ACAD_REACTORS
330
449
102
}
330
449
100
DictionaryVariables
280
     0
  1
2
  0
DICTIONARYVAR
  5
453
102
{ACAD_REACTORS
330
449
102
}
330
449
100
DictionaryVariables
280
     0
  1
1
  0
DICTIONARYVAR
  5
457
102
{ACAD_REACTORS
330
449
102
}
330
449
100
DictionaryVariables
280
     0
  1
1
  0
DICTIONARYVAR
  5
44D
102
{ACAD_REACTORS
330
449
102
}
330
449
100
DictionaryVariables
280
     0
  1
80.000000
  0
DICTIONARYVAR
  5
44C
102
{ACAD_REACTORS
330
449
102
}
330
449
100
DictionaryVariables
280
     0
  1
5.000000
  0
DICTIONARY
  5
45A
330
45
100
AcDbDictionary
280
     1
  3
ACAD_XREC_ROUNDTRIP
360
45B
  0
DICTIONARY
  5
458
330
44
100
AcDbDictionary
280
     1
  3
ACAD_XREC_ROUNDTRIP
360
459
  0
DICTIONARY
  5
45C
330
46
100
AcDbDictionary
280
     1
  3
ACAD_XREC_ROUNDTRIP
360
45D
  0
XRECORD
  5
45B
102
{ACAD_REACTORS
330
45A
102
}
330
45A
100
AcDbXrecord
102
MATERIAL
148
0.0
149
0.0
149
0.0
 93
        0
 94
      127
282
     0
 72
     1
 77
     1
171
     1
175
     1
179
     1
273
     0
  0
XRECORD
  5
459
102
{ACAD_REACTORS
330
458
102
}
330
458
100
AcDbXrecord
102
MATERIAL
148
0.0
149
0.0
149
0.0
 93
        0
 94
      127
282
     0
 72
     1
 77
     1
171
     1
175
     1
179
     1
273
     0
  0
XRECORD
  5
45D
102
{ACAD_REACTORS
330
45C
102
}
330
45C
100
AcDbXrecord
102
MATERIAL
148
0.0
149
0.0
149
0.0
 93
        0
 94
      127
282
     0
 72
     1
 77
     1
171
     1
175
     1
179
     1
273
     0
  0
ENDSEC
  0
EOF
